Guitar Tabs, Chords and Lyrics


I Was Made For Lovin' You   KISS

{eot}## of the song. You may only use this file for private study, scholarship,### All transcriptions on this site is the property of KISS Asylum and     ### permission from KISS Asylum.                                           #{sot}{eot}#I WAS MADE FOR LOVINĀ„ YOU (from the KISS CD "DYNASTY"){sot}
--------------------
{eot}
Transcribed by Emil Ortenmark, emil@kissasylum.com
Standard tuning
Comments: This is a great song. It is a bit disco but there's still plenty
of guitar. Basically there are three guitars running here: one holds down
the fort with some seriously tenacious 16th-note pumping; one plays the
chords and does a little harmony part against the sixteenths; and the third
plays fills and the solo. I've separated these in the tab by putting all
that each guitar does (almost) in one place. Now for some pointers. For
the chords in Rhy. Figs 1 and 2 the note in parenthesis (12 fret B-string)
rings out because it is "struck" by the left hand finger pulling off. It
is not picked. The guitar that does all the muted sixteenths is relatively
clean. Just lock in and relax, if you try too hard, you'll loose the beat
and get a cramp.
Key:
/    = slide up
    = slide down
b    = bend (whole step)
b^   = bend (1/2 step)
b^^  = bend (1 1/2 steps)
pb   = pre-bend
r    = release-bend
t    = tap with righthand finger
h    = hammer-on
p    = pull-off
~    = Vibrato
*    = Natural Harmonic**   = Artificial Harmonic
x    = Dead notes (no pitch)
P.M. = Palm mute (- -> underneath indicates which notes)
()  = Dive wbar
(/)  = Release wbar
Tp   = Tap wplectrum
Rhythm Fig. 1
                                                                                                                                                                  
{sot}
E|---------------------------------------------------------|
{eot}
                                                                                                                                                                  
{sot}
B|------------------------(12)------------------8---8p-7---|
{eot}
                                                                                                                                                                  
{sot}
G|----14---12-----14---14p-12---------7---5-----9---9p-7---|
{eot}
                                                                                                                                                                  
{sot}
D|----14---14-----14---14-------------7---7-----9---9p-7---|
{eot}
                                                                                                                                                                  
{sot}
A|---------------------------------------------------------|
{eot}
                                                                                                                                                                  
{sot}
E|---------------------------------------------------------|
{eot}
Rhythm Fig. 2
                                                                                                                                                                  
{sot}
E|---------------------------------------------------------|
{eot}
                                                                                                                                                                  
{sot}
B|------------------------(12)-----------------------------|
{eot}
                                                                                                                                                                  
{sot}
G|----14---12-----14---14p-12---------7---5-----7---7p-5---|
{eot}
                                                                                                                                                                  
{sot}
D|----14---14-----14---14-------------7---7-----7---7------|
{eot}
                                                                                                                                                                  
{sot}
A|---------------------------------------------------------|
{eot}
                                                                                                                                                                  
{sot}
E|---------------------------------------------------------|
{eot}
Rhythm Fig. 3
                                                                                                                                                                  
{sot}
E|---------------------------------------------------------|
{eot}
                                                                                                                                                                  
{sot}
B|--8--------------12--------------------------------------|
{eot}
                                                                                                                                                                  
{sot}
G|--9--------------12--------------4-------------9---------|
{eot}
                                                                                                                                                                  
{sot}
D|--9--------------12--------------4-------------9---------|
{eot}
                                                                                                                                                                  
{sot}
A|--7--------------10--------------2-------------7---------|
{eot}
                                                                                                                                                                  
{sot}
E|-----------------------------------------------0---------|
{eot}
                                                                                                                                                                  
{sot}
E|--7------------------------------------------------------|
{eot}
                                                                                                                                                                  
{sot}
B|--8--------------12--------------------------------2-----|
{eot}
                                                                                                                                                                  
{sot}
G|--9--------------12--------------4-----------2-----------|
{eot}
                                                                                                                                                                  
{sot}
D|--9--------------12--------------4-----------2-----------|
{eot}
                                                                                                                                                                  
{sot}
A|--7--------------10--------------2-----------0-----------|
{eot}
                                                                                                                                                                  
{sot}
E|---------------------------------------------------------|
{eot}
                                                                                                                                                                                                      
{sot}
E|---------------------------------------------------------|
{eot}
                                                                                                                                                                  
{sot}
B|-------2------2------2-----------------------------------|
{eot}
                                                                                                                                                                  
{sot}
G|----------2-------2--2-----------------------------------|
{eot}
                                                                                                                                                                  
{sot}
D|--2------------------2-----------------------------------|
{eot}
                                                                                                                                                                  
{sot}
A|---------------------0-----------------------------------|
{eot}
                                                                                                                                                                  
{sot}
E|---------------------------------12---------------------|
{eot}
                                                                                                                                                                  
{sot}
   Let ring - - - - >
{eot}
Rhythm Fig. 4
                                                                                                                                                                 
{sot}
E|--5--------7---------------------------------------------|
{eot}
                                                                                                                                                                 
{sot}
B|--5--------5-----------------------------8----------7----|
{eot}
                                                                                                                                                                 
{sot}
G|--5--------5----------7---------7----7---9----------7----|
{eot}
                                                                                                                                                                 
{sot}
D|--7-------------------7---------7----7---9----------7----|
{eot}
                                                                                                                                                                 
{sot}
A|----------------------5---------5----5---7---------------|
{eot}
                                                                                                                                                                 
{sot}
E|---------------------------------------------------------|
{eot}
                                                                                                                                                                 
{sot}
E|--5--------7---------------------------------------------|
{eot}
                                                                                                                                                                 
{sot}
B|--5--------5-----------------------------8---8-----7-----|
{eot}
                                                                                                                                                                 
{sot}
G|--5--------5----------7---------7----7---9------9-----7--|
{eot}
                                                                                                                                                                 
{sot}
D|--7-------------------7---------7----7---9---------------|
{eot}
                                                                                                                                                                 
{sot}
A|----------------------5---------5----5---7---------------|
{eot}
                                                                                                                                                                 
{sot}
E|---------------------------------------------------------|
{eot}
                                                                                                                                                                 
{sot}
  < - - - - - - - - - - - 2x - - - - - - - - - - - - - - >
{eot}
                                                                                                                                                                 
{sot}
E|--5------7-----------------------------------------------|
{eot}
                                                                                                                                                                 
{sot}
B|--5------5-----------------------------------------------|
{eot}
                                                                                                                                                                 
{sot}
G|--5------5--------7--7--7--7--7----2---4----4----4----4--|
{eot}
                                                                                                                                                                 
{sot}
D|--7---------------7--7--7--7--7----2---4----4----4----4--|
{eot}
                                                                                                                                                                 
{sot}
A|------------------5--5--5--5--5----0---2----2----2----2--|
{eot}
                                                                                                                                                                 
{sot}
E|---------------------------------------------------------|
{eot}
                                                                                                                                                                 
{sot}
                                         < - - - 3x - - - >
{eot}
                                                                                                                                                                 
{sot}
E|---------------------------------------------------------|
{eot}
                                                                                                                                                                 
{sot}
B|---------------------------------------------------------|
{eot}
                                                                                                                                                                 
{sot}
G|--4--4--4--4--4--4--4--4--4------------------------------|
{eot}
                                                                                                                                                                 
{sot}
D|--4--4--4--4--4--4--4--4--4------------------------------|
{eot}
                                                                                                                                                                 
{sot}
A|--2--2--2--2--2--2--2--2--2------------------------------|
{eot}
                                                                                                                                                                 
{sot}
E|-------------------------------------------------12-----|
{eot}
Rhythm Fig. 5 (P.M. throughout)
                                                                                                                                                                 
{sot}
E|---------------------------------------------------------|
{eot}
                                                                                                                                                                 
{sot}
B|---------------------------------------------------------|
{eot}
                                                                                                                                                                 
{sot}
G|---------------------------------------------------------|
{eot}
                                                                                                                                                                 
{sot}
D|---------------------------------------------------------|
{eot}
                                                                                                                                                                 
{sot}
A|---------------------------------------------------------|
{eot}
                                                                                                                                                                 
{sot}
E|--0-0-0-0-0-0-0-0-0-0-0-0-0-0-0-0------------------------|
{eot}
                                                                                                                                                                 
{sot}
    < - - - - - - 4x - - - - - - - >
{eot}
Rhythm Fig. 6 (P.M. throughout)
                                                                                                                                                                 
{sot}
E|---------------------------------------------------------|
{eot}
                                                                                                                                                                 
{sot}
B|---------------------------------------------------------|
{eot}
                                                                                                                                                                 
{sot}
G|---------------------------------------------------------|
{eot}
                                                                                                                                                                 
{sot}
D|---------------------------------------------------------|
{eot}
                                                                                                                                                                 
{sot}
A|---------------------------------------------------------|
{eot}
                                                                                                                                                                 
{sot}
E|--0-0-0-0-0-0-0-0--5-5-5-5-5-5-5-5-5-5-5-5-5-5-0-0-0-0---|
{eot}
                                                                                                                                                                 
{sot}
   < - - 4x - - - >
{eot}
                                                                                                                                                                 
{sot}
E|---------------------------------------------------------|
{eot}
                                                                                                                                                                 
{sot}
B|---------------------------------------------------------|
{eot}
                                                                                                                                                                 
{sot}
G|---------------------------------------------------------|
{eot}
                                                                                                                                                                 
{sot}
D|---------------------------------------------------------|
{eot}
                                                                                                                                                                 
{sot}
A|---------------------------------------------------------|
{eot}
                                                                                                                                                                 
{sot}
E|--0-0-0-10-10-10-10-10-10-10-10-10-10-10-10--------------|
{eot}
Rhythm Fig. 7 (P.M. throughout)
                                                                                                                                                                 
{sot}
E|---------------------------------------------------------|
{eot}
                                                                                                                                                                 
{sot}
B|---------------------------------------------------------|
{eot}
                                                                                                                                                                 
{sot}
G|---------------------------------------------------------|
{eot}
                                                                                                                                                                 
{sot}
D|---------------------------------------------------------|
{eot}
                                                                                                                                                                 
{sot}
A|---------------------------------------------------------|
{eot}
                                                                                                                                                                 
{sot}
E|--0-0-0-0-0-0-0-0--5-5-5-5-5-5-5-5--5-5-5-5-10-10-10-10--|
{eot}
                                                                                                                                                                 
{sot}
   < - - - 4x - - > < - - - 3x - - >
{eot}
Rhythm Fig. 8 (P.M. throughout)
                                                                                                                                                                 
{sot}
E|---------------------------------------------------------|
{eot}
                                                                                                                                                                 
{sot}
B|---------------------------------------------------------|
{eot}
                                                                                                                                                                 
{sot}
G|---------------------------------------------------------|
{eot}
                                                                                                                                                                 
{sot}
D|---------------------------------------------------------|
{eot}
                                                                                                                                                                 
{sot}
A|---------------------------------------------------------|
{eot}
                                                                                                                                                                 
{sot}
E|--0-0-0-0-0-0-0-0--3-3-3-3-3-3-3-3--7-7-7-7-7-7-7-7------|
{eot}
                                                                                                                                                                 
{sot}
   < - - - 4x - - > < - - - 4x - - > < - - - 4x - - >
{eot}
                                                                                                                                                                                                    
{sot}
E|---------------------------------------------------------|
{eot}
                                                                                                                                                                 
{sot}
B|---------------------------------------------------------|
{eot}
                                                                                                                                                                 
{sot}
G|---------------------------------------------------------|
{eot}
                                                                                                                                                                 
{sot}
D|---------------------------------------------------------|
{eot}
                                                                                                                                                                 
{sot}
A|---------------------------------------------------------|
{eot}
                                                                                                                                                                 
{sot}
E|--0-0-0-0-0-0-0-0--0-0-0-0-0-0-0-0--3-3-3-3-3-3-3-3------|
{eot}
                                                                                                                                                                 
{sot}
   < - - - 4x - - > < - - - 4x - - >  < - - - 4x - - >   
{eot}
                                                                                                                                                                 
{sot}
E|---------------------------------------------------------|
{eot}
                                                                                                                                                                 
{sot}
B|---------------------------------------------------------|
{eot}
                                                                                                                                                                 
{sot}
G|---------------------------------------------------------|
{eot}
                                                                                                                                                                 
{sot}
D|---------------------------------------------------------|
{eot}
                                                                                                                                                                 
{sot}
A|---------------------------------------------------------|
{eot}
                                                                                                                                                                 
{sot}
E|--7-7-7-7-7-7-7-7--5-5-5-5-5-5-5-5--5--------------------|
{eot}
                                                                                                                                                                 
{sot}
   < - - - 4x - - > < - - - 3x - - >
{eot}
                                   Rhythm Fig. 9
                                                                                                                                                                 
{sot}
E|---------------------------------------------------------|
{eot}
                                                                                                                                                                 
{sot}
B|---------------------------------------------------------|
{eot}
                                                                                                                                                                 
{sot}
G|---------------------------------------------------------|
{eot}
                                                                                                                                                                 
{sot}
D|---------------------------------------------------------|
{eot}
                                                                                                                                                                 
{sot}
A|---------------------------------------------------------|
{eot}
                                                                                                                                                                 
{sot}
E|--8-8-8-8-8-8-8-8--10-10-10-10-10-10-10-10--10-10-10-10--|
{eot}
                                                                                                                                                                 
{sot}
   < - - - 4x - - >  < - - - - 2x - - - - - >
{eot}
                                                                                                                                                                 
{sot}
E|---------------------------------------------------------|
{eot}
                                                                                                                                                                 
{sot}
B|---------------------------------------------------------|
{eot}
                                                                                                                                                                 
{sot}
G|---------------------------------------------------------|
{eot}
                                                                                                                                                                 
{sot}
D|---------------------------------------------------------|
{eot}
                                                                                                                                                                 
{sot}
A|---------------------------------------------------------|
{eot}
                                                                                                                                                                 
{sot}
E|--12-12-12-12-12-12-12-12-10-10-10-10--------------------|
{eot}
Rhythm Fig. 10
                                                                                                                                                                 
{sot}
E|---------------------------------------------------------|
{eot}
                                                                                                                                                                 
{sot}
B|---------------------------------------------------------|
{eot}
                                                                                                                                                                 
{sot}
G|---------------------------------------------------------|
{eot}
                                                                                                                                                                 
{sot}
D|---------------------------------------------------------|
{eot}
                                                                                                                                                                 
{sot}
A|---------------------------------------------------------|
{eot}
                                                                                                                                                                 
{sot}
E|--8-8-8-8-8-8-8-8--10-10-10-10-10-10-10-10-10-10-10-10---|
{eot}
                                                                                                                                                                 
{sot}
   < - - - 4x - - >
{eot}
                                                                                                                                                                 
{sot}
E|---------------------------------------------------------|
{eot}
                                                                                                                                                                 
{sot}
B|---------------------------------------------------------|
{eot}
                                                                                                                                                                 
{sot}
G|---------------------------------------------------------|
{eot}
                                                                                                                                                                 
{sot}
D|---------------------------------------------------------|
{eot}
                                                                                                                                                                 
{sot}
A|---------------------------------------------------------|
{eot}
                                                                                                                                                                 
{sot}
E|---5-5-5-5--7-7-7-7-7-7-7-7-7----------------------12---|
{eot}
                                                                                                                                                                 
{sot}
              < - - - 6x - - - >
{eot}
Rhythm Fig. 11 (P.M. throuhgout)
                                                                                                                                                                 
{sot}
E|---------------------------------------------------------|
{eot}
                                                                                                                                                                 
{sot}
B|---------------------------------------------------------|
{eot}
                                                                                                                                                                 
{sot}
G|---------------------------------------------------------|
{eot}
                                                                                                                                                                 
{sot}
D|---------------------------------------------------------|
{eot}
                                                                                                                                                                 
{sot}
A|--14-14-14-14-14-14-14-14--7-7-7-7-7-7-7-7-7-7-7-7-7-7---|
{eot}
                                                                                                                                                                 
{sot}
E|---------------------------------------------------------|
{eot}
                                                                                                                                                                 
{sot}
    < - - - - - 4x - - - - >
{eot}
                                                                                                                                                                                                     
{sot}
E|---------------------------------------------------------|
{eot}
                                                                                                                                                                 
{sot}
B|---------------------------------------------------------|
{eot}
                                                                                                                                                                 
{sot}
G|---------------------------------------------------------|
{eot}
                                                                                                                                                                 
{sot}
D|---------------------------------------------------------|
{eot}
                                                                                                                                                                 
{sot}
A|--14-14-14-14-14-14-9-9-9-9-10-10-9-9-9-9-9-9------------|
{eot}
                                                                                                                                                                 
{sot}
E|---------------------------------------------------------|
{eot}
Riff 1
                                                                                                                                                                 
{sot}
E|---------------------------------------------------------|
{eot}
                                                                                                                                                                 
{sot}
B|--5p3p0--------------------------------------------------|
{eot}
                                                                                                                                                                 
{sot}
G|--------4---2p0----0h2~----------------------------------|
{eot}
                                                                                                                                                                 
{sot}
D|----------------2----------------------------------------|
{eot}
                                                                                                                                                                 
{sot}
A|---------------------------------------------------------|
{eot}
                                                                                                                                                                 
{sot}
E|---------------------------------------------------------|
{eot}
                                                                                                                                                                 
{sot}
E|---------------------------------------------------------|
{eot}
                                                                                                                                                                 
{sot}
B|--15b--r15p12--------------------------------------------|
{eot}
                                                                                                                                                                 
{sot}
G|---------------14b--r14p12-14--14b-r14p12----------------|
{eot}
                                                                                                                                                                 
{sot}
D|------------------------------------------14-12-12h14~---|
{eot}
                                                                                                                                                                 
{sot}
A|---------------------------------------------------------|
{eot}
                                                                                                                                                                 
{sot}
E|---------------------------------------------------------|
{eot}
Riff 2 (P.M. throughout)
                                                                                                                                                                 
{sot}
E|---------------------------------------------------------|
{eot}
                                                                                                                                                                 
{sot}
B|---------------------------------------------------------|
{eot}
                                                                                                                                                                 
{sot}
G|---------------------------------------------------------|
{eot}
                                                                                                                                                                 
{sot}
D|---------------------------------------------------------|
{eot}
                                                                                                                                                                 
{sot}
A|------9-9-9-9-10-10-9-9-9-9-9-9--------------------------|
{eot}
                                                                                                                                                                 
{sot}
E|---------------------------------------------------------|
{eot}
Solo
                                                                                                                                                                 
{sot}
E|---------------------------------------------------------|
{eot}
                                                                                                                                                                 
{sot}
B|------------12-------------------------------------------|
{eot}
                                                                                                                                                                 
{sot}
G|------------12----14b**--14--12-------------12h14p12-----|
{eot}
                                                                                                                                                                 
{sot}
D|--------12-----------------------14-12-14------------14--|
{eot}
                                                                                                                                                                 
{sot}
A|--/14----------------------------------------------------|
{eot}
                                                                                                                                                                 
{sot}
E|---------------------------------------------------------|
{eot}
                                   P.M. - >
                                                                                                                                                                 
{sot}
E|---------------------------------------------------------|
{eot}
                                                                                                                                                                 
{sot}
B|--------------------------15----15b~-----12h15p12--------|
{eot}
                                                                                                                                                                 
{sot}
G|--12**---14b-r14p12----12-------------------------14-----|
{eot}
                                                                                                                                                                 
{sot}
D|--------------------14-----------------------------------|
{eot}
                                                                                                                                                                 
{sot}
A|---------------------------------------------------------|
{eot}
                                                                                                                                                                 
{sot}
E|---------------------------------------------------------|
{eot}
                                                                                                                                                                 
{sot}
E|----------------------------------------15---------------|
{eot}
                                                                                                                                                                 
{sot}
B|--12-------------------15**------------------------------|
{eot}
                                                                                                                                                                 
{sot}
G|---------14b-r14p12------------14b------------r14--------|
{eot}
                                                                                                                                                                 
{sot}
D|--------------------14-----------------------------14~---|
{eot}
                                                                                                                                                                 
{sot}
A|---------------------------------------------------------|
{eot}
                                                                                                                                                                 
{sot}
E|---------------------------------------------------------|
{eot}
                                                                                                                                                                 
{sot}
                                Let ring - - - - - >
{eot}
I WAS MADE FOR LOVIN' YOU
Paul Stanley, Desmond Child, Vini Poncia
(Rhy. Fig 5)
(Rhy. Fig 1 w/ Rhy. Fig 6 and Riff 1)
Mmm.. Yeah...
(Rhy. Fig 2 w/ Rhy. Fig 7)
Do, do, do, do, do, do, do, do, do
Do, do, do, do, do, do, do
(Rhy. Fig 1 w/ Rhy. Fig 6)
Do, do, do, do, do, do, do, do, do
Do, do, do, do, do, do, do
(Rhy. Fig 3 w/ Rhy. Fig 8)
Tonight I wanna give it all to you
In the darkness
There's so much I wanna do
And tonight I wanna lay it at your feet
'Cause girl, I was made for you
And girl, you were made for me
(Rhy. Fig 2 w/ Rhy. Fig 7)
I was made for lovin' you baby
You were made for lovin' me
(Rhy. Fig 1 w/ Rhy. Fig 6)
And I can't get enough of you baby
Can you get enough of me
(Rhy. Fig 3 w/ Rhy. Fig 8)
Tonight I wanna see it in your eyes
Feel the magic
There's something that drives me wild
And tonight we're gonna make it all come true
'Cause girl, you were made for me
And girl I was made for you
(Rhy. Fig 2 w/ Rhy. Fig 7)
I was made for lovin' you baby
You were made for lovin' me
(Rhy. Fig 1 w/ Rhy. Fig 6)
And I can't get enough of you baby
Can you get enough of me
(Rhy. Fig 2 w/ Rhy. Fig 7)
I was made for lovin' you baby
You were made for lovin' me
(Rhy. Fig 1 w/ Rhy. Fig 6)
And I can give it all to you baby
Can you give it all to me
(Rhy. Fig 5 w/ Rhy. Fig 9 (3x) then Rhy. Fig 10)
Oh, can't get enough, oh, oh
I can't get enough, oh, oh
I can't get enough
(Rhy. Fig 10 w/ Riff 2)
(Rhy. Fig 10 w/ Rhy. Fig 11)
(Solo over Rhy. Fig 10 w/ Rhy. Fig 11)
Yeah, ha
(Rhy. Fig 2 w/ Rhy. Fig 7)
Do, do, do, do, do, do, do, do, do
Do, do, do, do, do, do, do
(Rhy. Fig 1 w/ Rhy. Fig 6)
Do, do, do, do, do, do, do, do, do
Do, do, do, do, do, do, do
(Rhy. Fig 2 w/ Rhy. Fig 7)
I was made for lovin' you baby
You were made for lovin' me
(Rhy. Fig 1 w/ Rhy. Fig 6)
And I can't get enough of you baby
Can you get enough of me
(Rhy. Fig 1 w/ Rhy. Fig 6) (2x)
Oh, I was made, you were made
I can't get enough
No, I can't get enough
(Rhy. Fig 2 w/ Rhy. Fig 7)
I was made for lovin' you baby
You were made for lovin' me
(Rhy. Fig 1 w/ Rhy. Fig 6)
And I can't get enough of you baby
Can you get enough of me
(repeat and

Important: The song above is NOT stored on the Chordie server. The original song is hosted at www.kissasylum.com. Chordie works as a search engine and provides on-the-fly formatting. Chordie does not index songs against artists/composers will. To remove this song please click here.

This song is displayed as text-only. Transposing and tuning is only available for chordpro-songs.

Login - add to songbook

Rating click stars to rate

Layout
Accuracy

SHARE PAGE  




You need to log in to post comments