Guitar Tabs, Chords and Lyrics


Weather With You  N. Finn/T. Finn


Intro solo over Em A (x 4):
----------------------------|---------------|--------------------------|
-5^^^^^^--7-8--5^^^^^^--3-0-|-3-2-----------|-5^^^^^^--3>5-7-8-7-5-3-0-|
----------------------------|-----2-2--4-0--|--------------------------|
----------------------------|---------------|--------------------------|
----------------------------|---------------|--------------------------|
----------------------------|---------------|--------------------------|

-------------------|| -------------------|| -2>4-4--4--4--6-6--|| -------------------|| -------------------|| -------------------||

Walking 'round the [Em]room singing
Stormy [A]Weather
at fifty-[Em]seven Mt. Pleasant [A]St.
Now it's the [Em]same room but everything's [A]different
You can fight the [Em]sleep but not the [A]dream
[Dm]Things ain't [Am]cookin' [Dm]in my [Am]kitchen
[Dm]Strange aff[Am]liction wash [F]over me
[Dm]Julius [Am]Caesar [Dm]and the Roman [Am]Empire
[Dm]Couldn't [Am]conquer the [F]blue sky [G]
GUITAR (over Em - A)
-------------------------------------------------------------||
-3>5^^^^--3>5^^^^--7--8--7--5--3--0------------------------5-||
--------------------------------------2>4--4--4--4---6--7----||
-------------------------------------------------------------||
-------------------------------------------------------------||
-------------------------------------------------------------||

There's a [Em]small boat made of [A]china
Going [Em]nowhere on the mantle[A]piece
Do I [Em]lie like a loungeroom [A]lizard
Or do I [Em]sing like a bird re[A]leased
Everywhere you [A]go you always take the [D]weather with you
Everywhere you [A]go you always take the [D]weather
Everywhere you [A]go you always take the [G]weather with you
Everywhere you [D/F#]go you always take the weather,
Take the [G]weather, the [A]weather with you
GUITAR (over Em - A)
-------------------3--5-------------------------------|
-3>5^^^^--3>5^^^^-------5^^^^^-12^^^^--10--8--5--3--5-|
------------------------------------------------------|
------------------------------------------------------|
------------------------------------------------------|
------------------------------------------------------|

S--- ------------------------------------------------------------------|| -5^^^^^--7--8--7---5--3--0--0--3--5-------------------------------|| -------------------------------------2--2>0--2>0-2-2>0-2>0--2-2>4-|| ------------------------------------------------------------------|| ------------------------------------------------------------------|| ------------------------------------------------------------------||
Everywhere you [A]go you always take the [D]weather with you
Everywhere you [A]go you always take the [D]weather
Everywhere you [A]go you always take the [G]weather with you
Everywhere you [D/F#]go you always take the [E]weather,
Take the [G]weather, the [A]weather with [D]you

Important: The song above is NOT stored on the Chordie server. The original song is hosted at www.lindesign.se. Chordie works as a search engine and provides on-the-fly formatting. Chordie does not index songs against artists/composers will. To remove this song please click here.

Text color:
Chord color:
Chord grids: 
Font size:    
Page size: 

A Am D D/F# Dm E Em F G
variations - click chord images

Login - add to songbook

Transpose chords

Tuning

Rating click stars to rate

Layout
Accuracy

SHARE PAGE  




You need to log in to post comments