Guitar Tabs, Chords and Lyrics


Release   Pearl Jam






Received: from animal-farm.nevada.edu by redrock.nevada.edu (5.65c/M1.4)
	with SMTP id ; Thu, 6 May 1993 10:13:37 -0700
Received: from csd4.csd.uwm.edu by animal-farm.nevada.edu id ; Thu, 6 May 1993 10:13:34 -0700
Received: by csd4.csd.uwm.edu; id AA17931; Thu, 6 May 93 12:13:24 -0500
Date: Thu, 6 May 93 12:13:24 -0500

Message-Id: 
To: jamesb@animal-farm.nevada.edu



 Release -- Pearl Jam
 
 
 Intro (Repeat until the chorus)
 
    ---0-h-2-p-0-----------------0---------------3---0---
    ---------------3-----------------3-------------------
    -------------------2-----------------2---------------
    ---0---------------------0---------------0-----------
    -----------------------------------------------------
    -----------------------------------------------------
 
 Chorus
 
       D          Bm          C5    Asus4 D          Bm          C5
    ---3----------2-----------0-----------3----------2-----------0------
    ---3----------3-----------3-----------3----------3-----------3------
    ---2----------2-----------2-----------2----------2-----------2------
    ---0----------0-----------0-----------0----------0-----------0------
    --------------------------------------------------------------------
    --------------------------------------------------------------------
     ^^^^^^^^^^^^^^^^^^^^^^^^^^^^^^^^^^^^
    Someone correct me if I'm wrong but aren't these chords:
       Dsus4      D           Dsus2 ?
I tried to play the chords that were written and it does not sound right.

i see the world
feel the chill
which way to go
windowsill
i see the world  
on a rocking horse of time
i see the birds in the rain

oh dear dad
can you see me now
i am myself
like you somehow
i'll ride the wave
where it takes me
i'll hold the pain
release me

oh dear dad
can you see me now
i am myself
like you somehow
i'll wait up in the dark
for you to speak to me
i'll open up
release me
release me
release me
release me
{e

Important: The song above is NOT stored on the Chordie server. The original song is hosted at www.lindesign.se. Chordie works as a search engine and provides on-the-fly formatting. Chordie does not index songs against artists/composers will. To remove this song please click here.

This song is displayed as text-only. Transposing and tuning is only available for chordpro-songs.

Login - add to songbook

Rating click stars to rate

Layout
Accuracy

SHARE PAGE  




You need to log in to post comments