Guitar Tabs, Chords and Lyrics


Harvest Moon  Neil Young

[Em7]Come a little bit closer, hear what I have to sa[D]y  [D/B]     [Dmaj7]
[Em7]Just like children playin', we could dream this night aw[D]ay [D/B]    [Dmaj7]
[G]But there's a full moon risin',  Let's go dancin' in the l[D]igh[D/B]t   [Dmaj7]
We know where the music's playin', let's go out and feel the [D]ni[D/B]ght [Dmaj7]


Chorus

Beca[s4]use I'm still in love with y[A7]ou
I wanna see you dance ag[A7sus4]ain
Because I'm still in love with y[A7]ou
On this Harvest [D]Moon

When we were strangers, I watched you from afar
When we were lovers, I loved you with all my heart
But now it's gettin' late, and the moon is climbing high
I wanna celebrate, see it shinin' in your eye

Chorus

Important: The song above is NOT stored on the Chordie server. The original song is hosted at www.pjandphil.utvinternet.com. Chordie works as a search engine and provides on-the-fly formatting. Chordie does not index songs against artists/composers will. To remove this song please click here.

Text color:
Chord color:
Chord grids: 
Font size:    
Page size: 

A7 A7sus4 D D/B Dmaj7 Em7 G
variations - click chord images

Login - add to songbook

Transpose chords

Tuning

Rating click stars to rate

Layout
Accuracy

SHARE PAGE  




You need to log in to post comments

mickey mc donald (report)

here's my version :
intro to be played for every D chord :
either

e---2------2-------2---2---2-------2---2---2-----2---2---2--------I
b---3------3-------3---3---3-------2---2---2-----2---2---2--------I
g---2------4-------2---2---2-------2---2---2-----2---2---2--------I
d---0------0-------0---0---0-------0---0---0-----0---0---0--------I
a---x------x-------x---x---x-------x---x---x-----x---x---x--------I
e---x------x-------x---x---x-------x---x---x-----x---x---x--------I

or

e----0------0-------0---0---0--------9---9---9------9---9---9---------I
b---10-----12------10--10--10------10--10--10----10--10--10--------I
g---11-----11------11--11--11------11--11--11----11--11--11--------I
d----0------0-------0---0---0--------0---0---0------0---0---0---------I
a----x------x-------x---x---x--------x---x---x------x---x---x---------I
e----x------x-------x---x---x--------x---x---x------x---x---x---------I

to play for Em chords by guitar #1 com/watch?v=XQXnvNwGTAY) :

e------h12----------------------------------I
b---------h12-------------------------------I
g-------------h12---------------------------I
d------------------h12----------------------I

a-----------------------h9-------------------I
e--------------------------------------------I

Em D
Come a little bit closer, hear what I have to say
Em D
Just like children sleepin' we could dream this night a way.
G D
But there's a full moon rising, let's go dancing in the light.
G D
We know where the music's playing, lets go out and feel the night.

chorus:
G A Em
Because I'm still in love with you, I wanna see you dance a gain,
A D
Because I'm still in love with you, on this harvest moon.

Em D
When we were strangers I watched you from af ar
Em D
When we were lovers I loved you with all my he art
G D
But now it's gettin' late and the moon is climbin' hi gh
G D
I want to celebrate, see it shinin' in your e ye
hope it helps

dmdanmac (report)

Riff [Dsus2] [D6/9] [Dmaj7] (x4)
tab[E- 0---0---0---9----9---9--]
[B- 10--12--12--11---11--11--]
[G- 11--11--11--11---11--11--]
[D- 0------------------------]
harmonic [-12----------]
[---12--------]
[-----12------]
[-------12----]
[---------14--]
play harmontic up one string at a time

amboisvert (report)

The riff (D to Dmaj7) at the end of each line should be played twice through, and also at the end of the chorus. It is the signature riff of the song.

This is the only one of the arrangements that seems to come close to having the chords right.

Tony