Guitar Tabs, Chords and Lyrics


Strong Enough  Sheryl Crow

E-----2-------0-2---------|-------------------------|
B-----------3---------0---|-----3---------3-----2---|
G-----2-------2-----------|-------------4-----------|   2 times
D-0-------0-----------0---|-----4-----0---------2---|
A-------------------------|-2-------2-------0-------|
E-----------------3-------|-------------------------|


[D]God, I feel like [G]hell ton[Bm]ight  [A]                         1
(The) [D]tears of rage I c[G]annot f[Bm]ight   [A]                   1
I'd be the last to help you understand 1
Are you strong enough to be my man? 1

(My man) 1
(second guitar strums the same chords)                  [3]
Nothing's true and nothing's right 1
So let me be alone tonight 1
You can't change the way I am 1
Are you strong enough to be my man? 1

Refrain (strum):

1 2 3 4 5 6 | 1 2 3 4 5 6 |
  [Em]Lie             [D]    to    [G]me              [A]    I

1 2 3 4 5 6 | 1 2 3 4 5 6 |
  [Bm]promise         [C]I'll be-  [G]lieve           [A]

1 2 3 4 5 6 | 1 2 3 4 5 6 |
  [Em]Lie             [D]    to    [G]me              [A]    But

1 2 3 4 5 6 | 1 2 3 4 5 6 |
  [Bm]please          [C]don't     [G]leave           [A]

(don't leave) 1
(second guitar strums the same chords)                  [3]
(additional slide guitar)

I have a face I cannot show 1
I make the rules up as I go 1
It's try and love me if you can 1
Are you man enough to be my man? 1

(Are you strong enough) (to be my man)                  [1]1
(are you strong enough) (to be my man) 1
(Are you strong enough) (my man) 1

When I've shown you that I just don't care 1
When I'm throwing punches in the air 1
When I'm broken down and I can't stand 1
Will you be strong enough to be my man? 1

Refrain (strum)

End:

  [D]                                                                                
E-----2-------------------||
B-------------------------||
G-----2-------------------||
D-0-----------------------||
A-------------------------||
E-------------------------||


Chord Formations:

The only chord I'm not really sure about is the Bm-chord: it might be
Bm x 2 4 4 3 x where it is possible to pull the finger on the d-string
up to play as I have noted above or
2 2 4 4 3 2 but then the picked part should be
                      [Bm]                [A]                                            
                    E-------------------------|
                    B-----3---------3-----2---|
                    G-------------4-----------|
                    D-----4-----2---------2---|
                    A-2-------2-------0-------|
                    E-------------------------|  which sounds a bit strange.


Any help, remarks and corrections will be appreciated.

Fuer deutsche Gitarristen: ich habe die englische(?) Notierung verwandt.
Bm ist also zu lesen als h-moll.

-----------------------------------------------------------------------------

Jan Kaestner e-mail: j3kaes01@fsrz1.uni-passau.de
Lederergasse 1
94032 Passau Sorry about violations against the Nettiquette:
Tel.: 0851/30178 I study law, not computer science
-----------------------------------------------------------------------------



Important: The song above is NOT stored on the Chordie server. The original song is hosted at www.pjandphil.utvinternet.com. Chordie works as a search engine and provides on-the-fly formatting. Chordie does not index songs against artists/composers will. To remove this song please click here.

Text color:
Chord color:
Chord grids: 
Font size:    
Page size: 

A Bm C D Em G
variations - click chord images

Login - add to songbook

Transpose chords

Tuning

Rating click stars to rate

Layout
Accuracy

SHARE PAGE  




You need to log in to post comments