Guitar Tabs, Chords and Lyrics


Closing time  Lyle Lovett



  [A]                   [E]                  [F#m]                                               
E -----------------|-----------------|-----------------|-2---------------|
B -----------2-----|-------0-------0-|-------2-------2-|-------2-------2-|
G -------2-------2-|---1-------1-----|---2-------2-----|-----------2-----|
D -----2-------2---|-----2-------2---|-----4-------4---|-----4-------4---|
A -0---------------|-----------------|-----------------|-----------------|
E ---------0-------|-0-------0-------|-2-------2-------|-2-------2-------|

  [D]                  [E]                  [A]                                                
E -------2-------2-|-----------------|-----------------|-----------------|
B ---3-------3-----|------0--------0-|-------2-------2-|-------2-------2-|
G -----2-------2---|--1-------1------|---2-------2-----|---2-------2-----|
D -0-------0-------|----2-------2----|-----2-------2---|-----2-------2---|
A -----------------|-----------------|-0---------------|-0---------------|
E -----------------|-0------0--------|---------0-------|---------0-------|

SONG
The night she is a true com-panion
  [A]                   [E]                  [F#m]                                               
E -----------------|-----------------|-----------------|-2---------------|
B -----------2-----|-------0-------0-|-------2-------2-|-------2-------2-|
G -------2-------2-|---1-------1-----|---2-------2-----|-----------2-----|
D -----2-------2---|-----2-------2---|-----4-------4---|-----4-------4---|
A -0---------------|-----------------|-----------------|-----------------|
E ---------0-------|-0-------0-------|-2-------2-------|-2-------2-------|

They shuffle in they hear the sound
[D]                   [B]                  [D]                  [E]                              
E -------2-------2-|-------2-------2-|-------2-------2-|-----------------|
B ---3-------3-----|---4-------4-----|---3-------3-----|-------0-------0-|
G -----2-------2---|-----4-------4---|-----2-------2---|---1-------1-----|
D -0-------0-------|-4-------4-------|-0-------0-------|-----2-------2---|
A -----------------|-----------------|-----------------|-----------------|
E -----------------|-----------------|-----------------|-0-------0-------|

But by night's end its night's a-bandon
  [A]                   [E]                  [F#m]                                               
E -----------------|-----------------|-----------------|-2---------------|
B -----------2-----|-------0-------0-|-------2-------2-|-------2-------2-|
G -------2-------2-|---1-------1-----|---2-------2-----|-----------2-----|
D -----2-------2---|-----2-------2---|-----4-------4---|-----4-------4---|
A -0---------------|-----------------|-----------------|-----------------|
E ---------0-------|-0-------0-------|-2-------2-------|-2-------2-------|

You look acroos the floor Ain't anyone a- round
[D]                   [B]                  [D]                  [E]                              
E -------2-------2-|-------2-------2-|-------2-------2-|-----------------|
B ---3-------3-----|---4-------4-----|---3-------3-----|-------0-------0-|
G -----2-------2---|-----4-------4---|-----2-------2---|---1-------1-----|
D -0-------0-------|-4-------4-------|-0-------0-------|-----2-------2---|
A -----------------|-----------------|-----------------|-----------------|
E -----------------|-----------------|-----------------|-0-------0-------|

Closing Time un- plug them people
  [D]                  [E]                  [A]         [E]          [F#m]                             
E -------2-------2-|-----------------|-----------------|-----------------|
B ---3-------3-----|------0--------0-|-------2-------0-|-------2-------2-|
G -----2-------2---|--1-------1------|---2-------1-----|---2-------2-----|
D -0-------0-------|----2-------2----|-----2-------2---|-----4-------4---|
A -----------------|-----------------|-0---------------|-----------------|
E -----------------|-0------0--------|---------0-------|-2-------2-------|

and send them home it's closing time
  [D]                  [E]                  [A]                                                
E -------2-------2-|-----------------|-----------------|-----------------|
B ---3-------3-----|------0--------0-|-------2-------2-|-------2-------2-|
G -----2-------2---|--1-------1------|---2-------2-----|---2-------2-----|
D -0-------0-------|----2-------2----|-----2-------2---|-----2-------2---|
A -----------------|-----------------|-0---------------|-0---------------|
E -----------------|-0------0--------|---------0-------|---------0-------|

Lyrics:
[A]The night she [E]is a true com[F#m]panion
[D]They shuffle [B]in
[D]They hear the [E]sound
[A]But by night's [E]end
It's night's a[F#m]bandon
[D]You look across the f[B]loor
[D]Ain't anyone a[E]round
[D]Closing [E]time
[A]Unp[E]lug them [F#m]people
[D]And send them [E]home
It's closing t[A]ime
[A]Now Kenny he's been [E]mixing sound all e[F#m]vening
[D]Sometimes I [B]think that boy
[D]He ain't got no [E]ears
[A]And Kathy's lau[E]ghing
[F#m]Kathy's always laughing
[D]Well keep on l[B]aughing Kathy
[D]Just make it out of [E]here
[D]Closing t[E]ime
[A]Unpl[E]ug them pe[F#m]ople
[D]And send them h[E]ome
It's closing t[A]ime
[A]So stack those c[E]hairs upon those t[Fm#]ables
[D]And stack those e[B]mpties up[D]on that [E]bar
[A]And count your mo[E]ney
[F#m]And count my money
[D]And hear those [B]bottles ringing
[D]You know where you [E]are
[D]Closing t[E]ime
[A]Unp[E]lug them p[F#m]eople
[D]And send them [E]home
It's closing t[A]ime
[D]The night's all that's [E]left behind
[A]You take [E]your part and [F#m]I'll take mine
[D]And go on [E]home
It's closing [A]time

Important: The song above is NOT stored on the Chordie server. The original song is hosted at www.roughstock.com. Chordie works as a search engine and provides on-the-fly formatting. Chordie does not index songs against artists/composers will. To remove this song please click here.

Text color:
Chord color:
Chord grids: 
Font size:    
Page size: 

A B D E F#m
variations - click chord images

Login - add to songbook

Transpose chords

Tuning

Rating click stars to rate

Layout
Accuracy

SHARE PAGE  




You need to log in to post comments