Guitar Tabs, Chords and Lyrics


Desert skies   Marshall Tucker Band






Date: Wed, 30 Jan 2002 11:07:09 -0800 (PST)



Desert Skies
The Marshall Tucker Band
From the Album-"Carolina Dreams"
1977
Written by Toy Caldwell
Tabbed by Ray Scheidler 


Chords:

      E    GE------------4------5------3------2------2---
B------------6------7------3------2------2---
G-----1------5------6------3------2------2---
D-----2------4------5------3------2------1---
A-----2------6------7------5------4------2---
E------------4------5------3------2----------

    GE-----4------2------5------4------3------2---
B-----4------4------5------4------3------2---
G-----4------2------4------3------2------1---
D-----4------4------5------4------3------2---
A-----6------2-------------------------------
E-----4--------------------------------------

Intro:

        E
E--------------------------------------------
B--------------------------------------------
G----4--5--4----4--5--4----4--5--4---4--5--4-
D--2----------2----------2---------2---------
A--------------------------------------------
E--------------------------------------------


          E           GWell I'm ridin' along

A13                   E       Gm7  FSingin' the same ol' cowboy song

                                    E
That's been sung a hundred times before

                          G13
Ain't got nothin' but my name

    A13                 E         Gm7
And I'm the only man I know to blame

         FBut I'm livin' I'm happy and I'm free

                   FJust listen to the wind blow

       GLet it blow let it blow

                E
Sand over my trail

         FI got my saddle on the ground

         GAnd that ol' moon he can still be found

                      B7
Hidin' in the desert sky

                E
I like simple things in life

        GLike a prairie breeze

  A13                  E         Gm7 FA good stout horse between my knees

                             E
Just bein' alone just bein' me

    
And when I die let me die

         GWith a dream in my mind

   A13                      E         Gm7
A smile on my face and no trouble behind

             FAnd no cross on my grave 

     B9              E
To show my restin' place

                       FSo I can listen to the wind blow

       GLet it blow let it blow

                E
Sand over my trail

          FI got my saddle on the ground

        GAnd that ol' moon he can still be found

                       B7
Hidin' in the desert sky

          FWon't you bury me with my chaps on 

        E                     FAnd my six-gun strapped to my side

                          FSo I can watch the moon a-hidin'

        B9      E
In the desert sky

FHidin' in the desert sky

FHidin' in the desert sky

FHidin' in the desert sky


Important: The song above is NOT stored on the Chordie server. The original song is hosted at www.roughstock.com. Chordie works as a search engine and provides on-the-fly formatting. Chordie does not index songs against artists/composers will. To remove this song please click here.

This song is displayed as text-only. Transposing and tuning is only available for chordpro-songs.

Login - add to songbook

Rating click stars to rate

Layout
Accuracy

SHARE PAGE  




You need to log in to post comments