Guitar Tabs, Chords and Lyrics


wrapped up in you  Garth Brooks



    [G]                                        [A7]                                          
e |--------------------------------------|------------------/p------------|
b |----------3-------------------3-------|-----------------2---0-----------|
g |--/sl--------0-----------0-----------|------0------------------0-------|
D |-3----5---------------5---------------|--2-------2------------------2---|
A |--------------------------------------|-(0)-----------------------------|
E |--------------------------------------|---------------------------------|

    [C]                                        [G]                                          
e |--------------------------------------|-----------3-------3-------------|
b |--------------------------------------|-3---------3---5---3----/p-/p--|
g |-----0-------0---0--------------------|-0---4------h/--------4---2---0-|
D |-----0---2---2---2---2---0---2--------|--h/----------------------------|
A |-3--- h/------------3---3---3--------|---------------------------------|
E |--------------------------------------|---------------------------------|

Verse 1 : [G]How do I love you? Well, [B]let me see
          I l[C]ove you like a lyric loves a m[A7]elody
          [G]Maybe, complet[A7]ely
          [C]Wrapped up in [G]you
Verse 2 : [G]How do I need you? Well c[B]an't you tell?
          I ne[C]ed you like a penny needs a [A7]wishing well
          [G]Maybe, complet[A7]ely
          [C]Wrapped up in [G]you
Refrain:  [Em]Every now and then when the [B]world that we're living in'[Em]s cra[A]zy
          You g[A]ladly h[Em]old me and [G]car[G/A]ry   [G/B]me  thr[C]ough
          [Em]No one in the world's ever [B]done what you do for me[Em] and I'd b[A]e
A Em G G/A G/B C_____Cm
Sad and lonely if there were no yo____u
Verse 3 : [G]How do I love you? Well c[B]ount the ways
          There's [C]ain't no number high enough to [A7]end this phrase
          [G]Maybe, complet[A7]ely
          [C]Wrapped up in [G]you
Fill :    | G - - - | A7 - - - | C - - - | G - - - |
          | G - - - | A7 - - - | C - - - | G - - - |

( Sing along the Melody )
Refrain:  E[Em]very now and then when the w[B]orld that we're living in's[Em] craz[A]y
          You g[A]ladly h[Em]old me and [G]car[G/A]ry   [G/B]me  thr[C]ough
          [Em]No one in the world's ever [B]done what you do for me[Em] and I'd b[A]e
A Em G G/A G/B C_____Cm
Sad and lonely if there were no yo____u
Verse 4 : [G]How do I love you? Well, d[B]on't you know
          I l[C]ove you `bout as deep as any l[A7]ove can grow
          [G]Maybe, complet[A7]ely
          [C]Wrapped up in [G]you
          [G]Maybe, complet[A7]ely
          [C]Wrapped up in [G]you
The instrumental part at the end goes like :
          | G - - - | A7 - - - | C - - - | G - - - |

Repeating all the time
To make the song a little more interesting, you can play a few C9 chords
instead of the standard C chord in the 2'nd part of each verse.
Additional Chords :
   [G/A]        [G/B]        [Cm]         [C9]        [A7]                                                 
e3|--x-- 3|--x-- 3|--x-- 0|----- 0|-----
b3|--x-- 3|--x-- 4|--xx- 3|--x-- 2|-x---
g0|----- 0|----- 5|--x-x 0|----- 0|-----
D0|----- 0|----- 5|--x-x 2|-x--- 2|-x---
A0|----- 2|-x--- 3|--x-- 3|--x-- 0|-----
Ex|----- x|----- x|----- x|----- x|-----


Important: The song above is NOT stored on the Chordie server. The original song is hosted at www.roughstock.com. Chordie works as a search engine and provides on-the-fly formatting. Chordie does not index songs against artists/composers will. To remove this song please click here.

Text color:
Chord color:
Chord grids: 
Font size:    
Page size: 

A A7 B C C9 Cm Em G G/B
variations - click chord images

Login - add to songbook

Transpose chords

Tuning

Rating click stars to rate

Layout
Accuracy

SHARE PAGE  




You need to log in to post comments