Guitar Tabs, Chords and Lyrics

Blister In The Sun  Violent Femmes

e -------------- -------------- -------------- -------------- 
B -------------- -------------- -------------- -------------- 
G -------------- -------------- -------------- -------------- 
D -------------- -------------- -------------- -------------- 
A -----2--3--2-- ----2--23--2-- -----2--3--2-- -------------- 
E --3----------- -3------------ --3----------3 -------------- 

Verse 1:
[G]When I'm a wa[C]lkin' I [G]strut my st[C]uff, t[G]hen I'm [C]so strung [G]out.
I'm [G]high as a [C]kite, [G]I just [C]might [G]stop to [C]check you [G]out.

Let me go [Em]on, like a [C]blister in the sun.
Let me go [Em]on, big [C]hands I know your the [D]one.

Verse 2:
[G]Body be[C]ats, I[G] stain my s[C]heets.[G] I don't[C] even know [G]why.
My g[G]irlfriend [C]she at[G] the en[C]d, sh[G]e is sta[C]rting to c[G]ry.


Repeat Verses

Important: The song above is NOT stored on the Chordie server. The original song is hosted at Chordie works as a search engine and provides on-the-fly formatting. Chordie does not index songs against artists/composers will. To remove this song please click here.

Text color:
Chord color:
Chord grids: 
Font size:    
Page size: 

C D Em G
variations - click chord images

Login - add to songbook

Transpose chords


Rating click stars to rate



You need to log in to post comments

Term (report)

Thanks for putting up this tab. I find the intro goes like this:

A -----2--3--2-- ----2---3--2--
E --3---3------- -3---3--------

A----2--3p2---- --------------
E--3--3-----5p3 --------------

And I use Cadd9 instead of C in the verses

snwyvern (report)

The tab portion of this song is broken, but the chords are fine.