Guitar Tabs, Chords and Lyrics


Love is all aroud  Wet Wet Wet

--------------------------------------------------------


[D]-----2--------- -[Em]--0-------- [G]--3-------- [A]---0---
---------3----- -------0---- ----0------ -----2-
------------2-- ----------0- ---------0- -------
--0------------ ------------ ----------- -------
--------------- ------------ ----------- -0-----
--------------- -0--------- -3---------- -------
I feel it in my fin-gers, I feel it in m-y

[D]-----2--------- -[Em]--0-------- [G]--3-------- [A]---0---
---------3----- -------0---- ----0------ -----2-
------------2-- ----------0- ---------0- -------
--0------------ ------------ ----------- -------
--------------- ------------ ----------- -0-----
--------------- -0--------- -3---------- -------
toes

Well, love is all around me, and so the feeling grows
It's written on the wind, it's everywhere I go
So if you really love me, come on and let it show


Chorus.
(I pick the chords in random order, but you can strum as well)

You k[G]now I love you, I [Em]always will
My [G]mind's made up by the [D]way that I feel
There's [G]no beginning, there'll [Em]be no end
(Em) A <<<<<- here was G instead of Em.
'Cause on my love you can depend I think it's Em


I see your face before me as I lay on my bed
I kinda get to thinking of all the things we said
You gave your promise to me and I gave mine to you
I need someone beside me in everything I do

Chorus.

It's written on the wind, it's everywhere I go
So if you really love me, come on and let it show
Come on and let it show.... etc.

Enjoy!
Andrei Gheorghe( andrei@afi.paco.sfos.ro)


Important: The song above is NOT stored on the Chordie server. The original song is hosted at www.thudspace.net. Chordie works as a search engine and provides on-the-fly formatting. Chordie does not index songs against artists/composers will. To remove this song please click here.

Text color:
Chord color:
Chord grids: 
Font size:    
Page size: 

A D Em G
variations - click chord images

Login - add to songbook

Transpose chords

Tuning

Rating click stars to rate

Layout
Accuracy

SHARE PAGE  




You need to log in to post comments