Guitar Tabs, Chords and Lyrics


Broadway  Goo Goo Dolls



----------------------------------------------------------------------------

----------------------------------------------------------------------------
Intro.

e|-------------------------------------------------------------------------|
B|-------------------------------------------------------------------------|
G|-----5--5--5--5--5---2--2--2---2--2---5--5--5--5--5---2--2--2---2--2-----|
D|-----5--5--5--5--5---2--2--2---2--2---5--5--5--5--5---2--2--2---2--2-----|
A|-----3--3--3--3--3---0--0--0---0--0---3--3--3--3--3---0--0--0---0--0-----|
E|-------------------------------------------------------------------------|
e|-------------------------------------------------------|
B|------------8---8--------------------------------------|
G|------4/5-------5---5---7/9/7---5------5---7/5---------|
D|------------------------------------7-----------7/5----|
A|-------------------------------------------------------|
E|-------------------------------------------------------|

Broadway is Dark Tonight
e|---------0---------0----------0-----|
B|-----------1---------1----------1---|
G|------0---------0----------0--------|
D|------------------------------------|
A|----0-------------------------------|
E|-------------3----------1-----------|

A little bit weaker than you yoused to be
e|--------0---------0---------0---------0------|
B|----------1---------1---------1----------1---|
G|-----0---------0---------0---------0---------|
D|---------------------------------------------|
A|---3-----------------------------3-----------|
E|-------------3---------1---------------------|


Broadway is Dark Tonight
e|---------0---------0----------0------0----|
B|-----------1---------1----------1------1--|
G|------0---------0----------0-------0------|
D|------------------------------------------|
A|----0-------------------------------------|
E|-------------3----------1-----------------|

see the young man sitting in the old mans bar
e|--------0---------0---------0---------0------|
B|----------1---------1---------1----------1---|
G|-----0---------0---------0---------0---------|
D|---------------------------------------------|
A|---3-----------------------------3-----------|
E|-------------3---------1---------------------|

Waiting for his turn to die


e|---------0----------0-------------------------------------|
B|-----------1-----------1----------------------------------|
G|-----------------0---------5--5--5--5--5---2--2---2--2--2-|
D|-----2---------------------5--5--5--5--5---2--2---2--2--2-|
A|---0----------2------------3--3--3--3--3---0--0---0--0--0-|
E|----------------------------------------------------------|
e|----------------------------------------------|
B|----------------------------------------------|
G|-------5--5--5--5--5---2--2--2---2--2--4/5--0-|
D|-------5--5--5--5--5---2--2--2---2--2---------|
A|-------3--3--3--3--3---0--0--0---0--0---------|
E|----------------------------------------------|


[C5]the cowboy ki[A5]lls the rockstar
[C5]and friday ni[A5]ghts gone too far
[C5]the dim light h[A5]ides the years on [F5]all the faded girls
[C5]forgotten b[A5]ut not gone
[C5]you drank it [A5]off your mind
[C5]you talk ab[A5]out the world like its so[F5]meplace that youve b[G5]een
[C5]you see youd l[A5]ove to run home but you know you aint got one
[F5]cause your living in a world that your best forgotten
around [G5]here

Chorus

[A5]Broadway is d[G5]ark ton[F5]ight
[C5]a little bit w[G5]eeker than you  [F5]used to [C5]be
[A5]Broadway is d[G5]ark ton[F5]ight
[C5]see the young man [G5]sitting in the [F5]old mans [C5]bar
[A5]waiting for his t[F5]urn to d[C5]ie

[C5]You choke down [A5]all you anger
[C5]Forget your [A5]only son
[C5]You pray to s[A5]tatues when you s[F5]ober up for [G5]fun
[C5]You're anger [A5]don't impress me
[C5]The world sla[A5]pped in your face
[C5]It always ra[A5]ins like hell on the [F5]losers day p[G5]arade
[C5]you see youd l[A5]ove to run home but you know you aint got one
[F5]cause your living in a world that your best forgotten
And w[C5]hen you're th[A5]inkin' you're a jo[G5]ke
[C5]And nobody's gonna listen
To the [A5]one small point
[C5]I know they been m[A5]issin' 'round h[G5]ere
Chorus


[A5]Broadway is d[G5]ark ton[F5]ight
[C5]a little bit w[G5]eeker than you  [F5]used to [C5]be
[A5]Broadway is d[G5]ark ton[F5]ight
[C5]see the young man [G5]sitting in the [F5]old mans [C5]bar
[A5]waiting for his t[F5]urn to d[C5]ie
=============================================================================

END

+--------------------------------------------------------------------------+

| This file is the author's own work and represents their interpretation |
| of the song. You may only use this file for private study, scholarship, |
| or research. |
+--------------------------------------------------------------------------+


Ultimate-Guitar.Com © 2005

Important: The song above is NOT stored on the Chordie server. The original song is hosted at www.ultimate-guitar.com. Chordie works as a search engine and provides on-the-fly formatting. Chordie does not index songs against artists/composers will. To remove this song please click here.

Text color:
Chord color:
Chord grids: 
Font size:    
Page size: 

A5 C5 F5 G5
variations - click chord images

Login - add to songbook

Transpose chords

Tuning

Rating click stars to rate

Layout
Accuracy

SHARE PAGE  




You need to log in to post comments