Guitar Tabs, Chords and Lyrics


Money  Beatles

  [E]                                                                              
e|------- ------- ------- -------|------- ------- ------- -------|

B|-------------------------------|-------------------------------|
G|0---0---4---5---6-------4---0--|4---0---4---6-------4---4---4--|
D|-------------------------------|-------------------------------|
A|-------------------------------|-------------------------------|
E|0---0---3---4---5-------3---0--|3---0---3---5-------3---3---3--|
e|------- ------- ------- -------|------- ------- ------- -------|
B|-------------------------------|-------------------------------|
G|0---0---4---5---6-------4---0--|4---0---4---6-------4---4---4--|
D|-------------------------------|-------------------------------|
A|-------------------------------|-------------------------------|
E|0---0---3---4---5-------3---0--|3---0---3---5-------3---3---3--|
e|------- ------- ------- -------|------- ------- ------- -------|
B|-------------------------------|-------------------------------|
G|-------------------------------|-------------------------------|
D|-------------------------------|-------------------------------|
A|-------------------------------|-------------------------------|
E|0---0---3---4---5-------3---0--|3---0---3---5-------3---3---3--|


  [B7]                                [A7]                                              
e|7-----7 7---7-- ------- -------|5-----5 5---5-- ------- -------|

B10----1010--10------------------|8-----8-8---8------------------|
G|8-----8-8---8------------------|6-----6-6---6------------------|
D|7-----7-7---7------------------|5-----5-5---5------------------|
A|9-----9-9---9------------------|7-----7-7---7------------------|
E|7-----7-7---7------------------|5-----5-5---5------------------|
e|------- ------- ------- -------|------- ------- ------- -------|
B|-------------------------------|-------------------------------|
G|0---0---4---5---6-------4---0--|4---0---4---6-------4---4---4--|
D|-------------------------------|-------------------------------|
A|-------------------------------|-------------------------------|
E|0---0---3---4---5-------3---0--|3---0---3---5-------3---3---3--|
e|------- ------- ------- -------|------- ------- ------- -------|
B|-------------------------------|-------------------------------|
G|-------------------------------|-------------------------------|
D|-------------------------------|-------------------------------|
A|-------------------------------|-------------------------------|
E|0---0---3---4---5-------3---0--|3---0---3---5-------3---3---3--|
  [E]                                    [B]                                         
e|------- ------- ------- -------|----7-- 7---7-- 7---7-- 7---7--|

B|-------------------------------|----7---7---7---7---7---7---7--|
G|-------------------------------|----8---8---8---8---8---8---8--|
D|-------------------------------|----9---9---9---9---9---9---9--|
A|-------------------------------|----9---9---9---9---9---9---9--|
E|-------------------------------|----7---7---7---7---7---7---7--|
e|------- ------- ------- -------|------- ------- ------- -------|
B|-------------------------------|----0---0---0---0---0---0---0--|
G|0---0---4---5---6-------4---0--|----2---2---2---2---2---2---2--|
D|-------------------------------|----1---1---1---1---1---1---1--|
A|-------------------------------|----2---2---2---2---2---2---2--|
E|0---0---3---4---5-------3---0--|-------------------------------|
e|------- ------- ------- -------|------- ------- ------- -------|
B|-------------------------------|-------------------------------|
G|-------------------------------|-------------------------------|
D|-------------------------------|-------------------------------|
A|-------------------------------|-------------------------------|
E|0---0---3---4---5-------3---0--|-------------------------------|
  [E]                                                    [A]                         
e|0------ ------- ------- -------|------- ------- ----0-- 0---0--|

B|0------------------------------|--------------------2---2---2--|
G|1------------------------------|--------------------2---2---2--|
D|2------------------------------|--------------------2---2---2--|
A|2------------------------------|--------------------0---0---0--|
E|0------------------------------|-------------------------------|
The best things in life are free


  [E]                                                    [G]                         
e|0------ ------- ------- -------|------- ------- ----3-- 3------|

B|0------------------------------|--------------------3---3------|
G|1------------------------------|--------------------4---4------|
D|2------------------------------|--------------------5---5------|
A|2------------------------------|--------------------5---5------|
E|0------------------------------|--------------------3---3------|
But you can keep 'em for the birds and bees. Now gimme

  [A7]                                                                             
e|5------ 5------ ------- 5------|------- ----5-- ----5-- -------|

B|8-------8---------------8------|------------8-------8----------|
G|6-------6---------------6------|------------6-------6----------|
D|7-------5---------------5------|------------5-------5----------|
A|7-------7---------------7------|------------7-------7----------|
E|5-------5---------------5------|------------5-------5----------|
money That's what I
(That's what I want)
e|------- ------- ------- -------|------- ------- ------- -------|

B|-------------------------------|-------------------------------|
G|0---0---4---5---6-------4---0--|4---0---4---6-------4---4---4--|
D|-------------------------------|-------------------------------|
A|-------------------------------|-------------------------------|
E|0---0---3---4---5-------3---0--|3---0---3---5-------3---3---3--|


  [E7]                                                                             
e|0------ 0---0-- ----0-- -------|0---0-- 0---0-- ----0-- -------|

B|3-------3---3-------3----------|3---3---3---3-------3----------|
G|1-------1---1-------1----------|1---1---1---1-------1----------|
D|2-------2---2-------2----------|2---2---2---2-------2----------|
A|2-------2---2-------2----------|2---2---2---2-------2----------|
E|0-------0---0-------0----------|0---0---0---0-------0----------|
want. That's what I
(That's what I want)
e|------- ------- ------- -------|------- ------- ------- -------|

B|-------------------------------|-------------------------------|
G|0---0---4---5---6-------4---0--|4---0---4---6-------4---4---4--|
D|-------------------------------|-------------------------------|
A|-------------------------------|-------------------------------|
E|0---0---3---4---5-------3---0--|3---0---3---5-------3---3---3--|


  [B7]                                [A7]                                             
e|7------ 7---7- ------- --7-----|5------ ----5-- ------- 5---5--|

B10------10--10-----------10-----|8-----------8-----------8---8--|
G|8-------8---8------------8-----|6-----------6-----------6---6--|
D|7-------7---7------------7-----|5-----------5-----------5---5--|
A|9-------9---9------------9-----|7-----------7-----------7---7--|
E|7-------7---7------------7-----|5-----------5-----------5---5--|
want Oh, yeah
(That's what I want)
e|------- ------- ------- -------|------- ------- ------- -------|

B|-------------------------------|-------------------------------|
G|0---0---4---5---6-------4---0--|4---0---4---6-------4---4---4--|
D|-------------------------------|-------------------------------|
A|-------------------------------|-------------------------------|
E|0---0---3---4---5-------3---0--|3---0---3---5-------3---3---3--|


  [E]                [A]        [G]    [E]        [B]                                         
e|0---0-- 0---0-- 0------ ----0--|----7-- 7---7-- 7---7-- 7---7--|

B|0---0---0---0---2-------0---0--|----7---7---7---7---7---7---7--|
G|1---1---1---1---2-------0---1--|----8---8---8---8---8---8---8--|
D|2---2---2---2---2-------0---2--|----9---9---9---9---9---9---9--|
A|2---2---2---2---0-----------2--|----9---9---9---9---9---9---9--|
E|0---0---0---0---------------0--|----7---7---7---7---7---7---7--|
That's what I want


e|------- ------- ------- -------|------- ------- ------- -------|

B|-------------------------------|----0---0---0---0---0---0---0--|
G|0---0---4---5---6-------4---0--|----2---2---2---2---2---2---2--|
D|-------------------------------|----1---1---1---1---1---1---1--|
A|-------------------------------|----2---2---2---2---2---2---2--|
E|0---0---3---4---5-------3---0--|-------------------------------|


  [E]                                                    [A]                         
e|0------ ------- ------- -------|------- ------- ----0-- 0---0--|

B|0------------------------------|--------------------2---2---2--|
G|1------------------------------|--------------------2---2---2--|
D|2------------------------------|--------------------2---2---2--|
A|2------------------------------|--------------------0---0---0--|
E|0------------------------------|-------------------------------|
Your lovin' give me a thrill


  [E]                                                    [G]                         
e|0------ ------- ------- -------|------- ------- ----3-- 3---3--|

B|0------------------------------|--------------------3---3---3--|
G|1------------------------------|--------------------4---4---4--|
D|2------------------------------|--------------------5---5---5--|
A|2------------------------------|--------------------5---5---5--|
E|0------------------------------|--------------------3---3---3--|
But your lovin' don't pay my bills. Now gimme
  [A7]                                                                             
e|5------ 5------ ------- 5------|5------ 5---5-- ----5-- -------|

B|8-------8---------------8------|8-------8---8-------8----------|
G|6-------6---------------6------|6-------6---6-------6----------|
D|7-------5---------------5------|5-------5---5-------5----------|
A|7-------7---------------7------|7-------7---7-------7----------|
E|5-------5---------------5------|5-------5---5-------5----------|
money That's what I
(That's what I want)
e|------- ------- ------- -------|------- ------- ------- -------|

B|-------------------------------|-------------------------------|
G|0---0---4---5---6-------4---0--|4---0---4---6-------4---4---4--|
D|-------------------------------|-------------------------------|
A|-------------------------------|-------------------------------|
E|0---0---3---4---5-------3---0--|3---0---3---5-------3---3---3--|


          [E7]                                                                     
e|------- 0------ ----0-- -------|0---0-- ----0-- ----0-- -------|

B|--------3-----------3----------|3---3-------3-------3----------|
G|--------1-----------1----------|1---1-------1-------1----------|
D|--------2-----------2----------|2---2-------2-------2----------|
A|--------2-----------2----------|2---2-------2-------2----------|
E|--------0-----------0----------|0---0-------0-------0----------|
want. That's what I
(That's what I want)
e|------- ------- ------- -------|------- ------- ------- -------|

B|-------------------------------|-------------------------------|
G|0---0---4---5---6-------4---0--|4---0---4---6-------4---4---4--|
D|-------------------------------|-------------------------------|
A|-------------------------------|-------------------------------|
E|0---0---3---4---5-------3---0--|3---0---3---5-------3---3---3--|


  [B7]                                [A7]                                             
e|7------ ----7-- -----7- -------|5------ ----5-- ----5-- 5------|

B10----------10-------10---------|8-----------8-------8---8------|
G|8-----------8--------8---------|6-----------6-------6---6------|
D|7-----------7--------7---------|5-----------5-------5---5------|
A|9-----------9--------9---------|7-----------7-------7---7------|
E|7-----------7--------7---------|5-----------5-------5---5------|
want Oh, yeah
(That's what I want)


e|------- ------- ------- -------|------- ------- ------- -------|

B|-------------------------------|-------------------------------|
G|0---0---4---5---6-------4---0--|4---0---4---6-------4---4---4--|
D|-------------------------------|-------------------------------|
A|-------------------------------|-------------------------------|
E|0---0---3---4---5-------3---0--|3---0---3---5-------3---3---3--|


  [E7]                [A]            [E7]        [B]                                         
e|0------ 0------ 0------ ----0--|----7-- 7---7-- 7---7-- 7---7--|

B|3-------3-------2-----------3--|----7---7---7---7---7---7---7--|
G|1-------1-------2-----------1--|----8---8---8---8---8---8---8--|
D|2-------2-------2-----------2--|----9---9---9---9---9---9---9--|
A|2-------2-------0-----------2--|----9---9---9---9---9---9---9--|
E|0-------0-------------------0--|----7---7---7---7---7---7---7--|
That's what I want
e|------- ------- ------- -------|------- ------- ------- -------|

B|-------------------------------|----0---0---0---0---0---0---0--|
G|0---0---4---5---6-------4---0--|----2---2---2---2---2---2---2--|
D|-------------------------------|----1---1---1---1---1---1---1--|
A|-------------------------------|----2---2---2---2---2---2---2--|
E|0---0---3---4---5-------3---0--|-------------------------------|


  [E]                                                    [A]                         
e|0------ ------- ------- -------|------- ------- ----0-- 0---0--|

B|0------------------------------|--------------------2---2---2--|
G|1------------------------------|--------------------2---2---2--|
D|2------------------------------|--------------------2---2---2--|
A|2------------------------------|--------------------0---0---0--|
E|0------------------------------|-------------------------------|
Money don't give evrything it's true


  [E]                                                    [G]                         
e|0------ ------- ------- -------|------- ------- ----3-- 3---3--|

B|0------------------------------|--------------------3---3---3--|
G|1------------------------------|--------------------4---4---4--|
D|2------------------------------|--------------------5---5---5--|
A|2------------------------------|--------------------5---5---5--|
E|0------------------------------|--------------------3---3---3--|
What it don't get I can't use Now gimme


  [A7]                                                                             
e|5------ 5---5-- ----5-- 5------|------- 5---5-- ----5-- ----5--|

B|8-------8---8-------8---8------|--------8---8-------8-------8--|
G|6-------6---6-------6---6------|--------6---6-------6-------6--|
D|5-------5---5-------5---5------|--------5---5-------5-------5--|
A|7-------7---7-------7---7------|--------7---7-------7-------7--|
E|5-------5---5-------5---5------|--------5---5-------5-------5--|
money That's what I
(That's what I want)
e|------- ------- ------- -------|------- ------- ------- -------|

B|-------------------------------|-------------------------------|
G|0---0---4---5---6-------4---0--|4---0---4---6-------4---4---4--|
D|-------------------------------|-------------------------------|
A|-------------------------------|-------------------------------|
E|0---0---3---4---5-------3---0--|3---0---3---5-------3---3---3--|


  [E7]                                                                             
e|0---0-- 0------ ----0-- -------|0---0-- ----0-- ----0-- -------|

B|5---5---5-----------5----------|5---5-------5-------5----------|
G|7---7---7-----------7----------|7---7-------7-------7----------|
D|6---6---6-----------6----------|6---6-------6-------6----------|
A|7---7---7-----------7----------|7---7-------7-------7----------|
E|0---0---0-----------0----------|0---0-------0-------0----------|
want That's what I
(That's what I want)


e|------- ------- ------- -------|------- ------- ------- -------|

B|-------------------------------|-------------------------------|
G|0---0---4---5---6-------4---0--|4---0---4---6-------4---4---4--|
D|-------------------------------|-------------------------------|
A|-------------------------------|-------------------------------|
E|0---0---3---4---5-------3---0--|3---0---3---5-------3---3---3--|


  [B7]                                [A7]                                             
e|7------ 7---7-- ------- -7-----|5------ ----5-- ----5-- 5---5--|

B10------10--10-----------10-----|8-----------8-------8---8---8--|
G|8-------8---8------------8-----|6-----------6-------6---6---6--|
D|7-------7---7------------7-----|5-----------5-------5---5---5--|
A|9-------9---9------------9-----|7-----------7-------7---7---7--|
E|7-------7---7------------7-----|5-----------5-------5---5---5--|
want Oh, yeah
(That's what I want)
e|------- ------- ------- -------|------- ------- ------- -------|

B|-------------------------------|-------------------------------|
G|0---0---4---5---6-------4---0--|4---0---4---6-------4---4---4--|
D|-------------------------------|-------------------------------|
A|-------------------------------|-------------------------------|
E|0---0---3---4---5-------3---0--|3---0---3---5-------3---3---3--|


  [E]                [A]        [G]    [E]        [B]                                         
e|0---0-- 0---0-- 0------ ----0--|----7-- 7---7-- 7---7-- 7---7--|

B|0---0---0---0---2-------0---0--|----7---7---7---7---7---7---7--|
G|1---1---1---1---2-------0---1--|----8---8---8---8---8---8---8--|
D|2---2---2---2---2-------0---2--|----9---9---9---9---9---9---9--|
A|2---2---2---2---0-----------2--|----9---9---9---9---9---9---9--|
E|0---0---0---0---------------0--|----7---7---7---7---7---7---7--|
That's what I want
e|------- ------- ------- -------|------- ------- ------- -------|

B|-------------------------------|----0---0---0---0---0---0---0--|
G|0---0---4---5---6-------4---0--|----2---2---2---2---2---2---2--|
D|-------------------------------|----1---1---1---1---1---1---1--|
A|-------------------------------|----2---2---2---2---2---2---2--|
E|0---0---3---4---5-------3---0--|-------------------------------|


  [E]                                                                             
e|------- ------- ------- -------|------- ------- ------- -------|

B|-------------------------------|-------------------------------|
G|0---0---4---5---6-------4---0--|4---0---4---6-------4---4---4--|
D|-------------------------------|-------------------------------|
A|-------------------------------|-------------------------------|
E|0---0---3---4---5-------3---0--|3---0---3---5-------3---3---3--|
e|------- ------- ------- -------|------- ------- ------- -------|
B|-------------------------------|-------------------------------|
G|--------4---5---6-------4------|4-------4---6-------4---4---4--|
D|5---5---5---6---7-------5---5--|5---5---5---7-------5---5---5--|
A|7---7-----------------------7--|----7--------------------------|
E|-------------------------------|-------------------------------|
e|------- ------- ------- -------|------- ------- ------- -------|
B|-------------------------------|-------------------------------|
G|0---0---4---5---6-------4---0--|4---0---4---6-------4---4---4--|
D|-------------------------------|-------------------------------|
A|-------------------------------|-------------------------------|
E|0---0---3---4---5-------3---0--|3---0---3---5-------3---3---3--|
e|------- ------- ------- -------|------- ------- ------- -------|
B|-------------------------------|-------------------------------|
G|--------4---5---6-------4------|4-------4---6-------4---4---4--|
D|5---5---5---6---7-------5---5--|5---5---5---7-------5---5---5--|
A|7---7-----------------------7--|----7--------------------------|
E|-------------------------------|-------------------------------|
  [B7]                                [A7]                                             
e|7-----7 7---7-- ------- -------|5-----5 5---5-- ------- -------|

B10----1010--10------------------|8-----8-8---8------------------|
G|8-----8-8---8------------------|6-----6-6---6------------------|
D|7-----7-7---7------------------|5-----5-5---5------------------|
A|9-----9-9---9------------------|7-----7-7---7------------------|
E|7-----7-7---7------------------|5-----5-5---5------------------|
e|------- ------- ------- -------|------- ------- ------- -------|
B|-------------------------------|-------------------------------|
G|0---0---4---5---6-------4---0--|4---0---4---6-------4---4---4--|
D|-------------------------------|-------------------------------|
A|-------------------------------|-------------------------------|
E|0---0---3---4---5-------3---0--|3---0---3---5-------3---3---3--|
e|------- ------- ------- -------|------- ------- ------- -------|
B|-------------------------------|-------------------------------|
G|--------4---5---6-------4------|4-------4---6-------4---4---4--|
D|5---5---5---6---7-------5---5--|5---5---5---7-------5---5---5--|
A|7---7-----------------------7--|----7--------------------------|
E|-------------------------------|-------------------------------|
  [E]                [A]        [G]    [E]        [B]                                         
e|0---0-- 0---0-- 0------ ----0--|----7-- 7---7-- 7---7-- 7---7--|

B|0---0---0---0---2-------0---0--|----7---7---7---7---7---7---7--|
G|1---1---1---1---2-------0---1--|----8---8---8---8---8---8---8--|
D|2---2---2---2---2-------0---2--|----9---9---9---9---9---9---9--|
A|2---2---2---2---0-----------2--|----9---9---9---9---9---9---9--|
E|0---0---0---0---------------0--|----7---7---7---7---7---7---7--|
e|------- ------- ------- -------|------- ------- ------- -------|
B|-------------------------------|----0---0---0---0---0---0---0--|
G|0---0---4---5---6-------4---0--|----2---2---2---2---2---2---2--|
D|-------------------------------|----1---1---1---1---1---1---1--|
A|-------------------------------|----2---2---2---2---2---2---2--|
E|0---0---3---4---5-------3---0--|-------------------------------|
e|------- ------- ------- -------|------- ------- ------- -------|
B|-------------------------------|-------------------------------|
G|--------4---5---6-------4------|-------------------------------|
D|5---5---5---6---7-------5---5--|-------------------------------|
A|7---7-----------------------7--|-------------------------------|
E|-------------------------------|-------------------------------|
  [E]                                                    [A]                         
e|0------ ------- ------- -------|------- ------- ----0-- 0---0--|

B|0------------------------------|--------------------2---2---2--|
G|1------------------------------|--------------------2---2---2--|
D|2------------------------------|--------------------2---2---2--|
A|2------------------------------|--------------------0---0---0--|
E|0------------------------------|-------------------------------|
Money don't give evrything it's true


  [E]                                                                             
e|0------ ------- ------- -------|------- ------- ------- 0------|

B|0------------------------------|------------------------0------|
G|1------------------------------|------------------------1------|
D|2------------------------------|------------------------2------|
A|2------------------------------|------------------------2------|
E|0------------------------------|------------------------0------|
What it don't get I can't use So gimme


  [A7]                                                                             
e|5------ 5------ 5------ 5------|------- 5------ ----5-- ----5--|

B|8-------8-------8-------8------|--------8-----------8-------8--|
G|6-------6-------6-------6------|--------6-----------6-------6--|
D|7-------5-------5-------5------|--------5-----------5-------5--|
A|7-------7-------7-------7------|--------7-----------7-------7--|
E|5-------5-------5-------5------|--------5-----------5-------5--|
money That's what I
(That's what I want)
e|------- ------- ------- -------|------- ------- ------- -------|

B|-------------------------------|-------------------------------|
G|0---0---4---5---6-------4---0--|4---0---4---6-------4---4---4--|
D|-------------------------------|-------------------------------|
A|-------------------------------|-------------------------------|
E|0---0---3---4---5-------3---0--|3---0---3---5-------3---3---3--|


  [E7]                                                                             
e|0------ 0---0-- 0---0-- 0---0--|0---0-- 0---0-- ----0-- ----0--|

B|3-------3---3---3---3---3---3--|3---3---3---3-------3-------3--|
G|1-------1---1---1---1---1---1--|1---1---1---1-------1-------1--|
D|2-------2---2---2---2---2---2--|2---2---2---2-------2-------2--|
A|2-------2---2---2---2---2---2--|2---2---2---2-------2-------2--|
E|0-------0---0---0---0---0---0--|0---0---0---0-------0-------0--|
want That's what I
(That's what I want)
e|------- ------- ------- -------|------- ------- ------- -------|

B|-------------------------------|-------------------------------|
G|0---0---4---5---6-------4---0--|4---0---4---6-------4---4---4--|
D|-------------------------------|-------------------------------|
A|-------------------------------|-------------------------------|
E|0---0---3---4---5-------3---0--|3---0---3---5-------3---3---3--|


  [B7]                                [A7]                                             
e|7------ ----7-- ------- -7-----|5------ ----5-- ----5-- 5------|

B10----------10-----------10-----|8-----------8-------8---8------|
G|8-----------8------------8-----|6-----------6-------6---6------|
D|7-----------7------------7-----|5-----------5-------5---5------|
A|9-----------9------------9-----|7-----------7-------7---7------|
E|7-----------7------------7-----|5-----------5-------5---5------|
want Oh, yeah
(That's what I want)
e|------- ------- ------- -------|------- ------- ------- -------|

B|-------------------------------|-------------------------------|
G|0---0---4---5---6-------4---0--|4---0---4---6-------4---4---4--|
D|-------------------------------|-------------------------------|
A|-------------------------------|-------------------------------|
E|0---0---3---4---5-------3---0--|3---0---3---5-------3---3---3--|


  [E]                [A]        [G]    [E]        [B]                                         
e|0---0-- 0---0-- 0------ ----0--|----7-- 7---7-- 7---7-- 7---7--|

B|0---0---0---0---2-------0---0--|----7---7---7---7---7---7---7--|
G|1---1---1---1---2-------0---1--|----8---8---8---8---8---8---8--|
D|2---2---2---2---2-------0---2--|----9---9---9---9---9---9---9--|
A|2---2---2---2---0-----------2--|----9---9---9---9---9---9---9--|
E|0---0---0---0---------------0--|----7---7---7---7---7---7---7--|
That's what I want Well now gimme
e|------- ------- ------- -------|------- ------- ------- -------|

B|-------------------------------|----0---0---0---0---0---0---0--|
G|0---0---4---5---6-------4---0--|----2---2---2---2---2---2---2--|
D|-------------------------------|----1---1---1---1---1---1---1--|
A|-------------------------------|----2---2---2---2---2---2---2--|
E|0---0---3---4---5-------3---0--|-------------------------------|


          [E7]                           
e|------- 0---0-- ----0-- 0------|------- 0---0-- ----0-- 0------|

B|--------3---3-------3---3------|--------3---3-------3---3------|
G|--------1---1-------1---1------|--------1---1-------1---1------|
D|--------2---2-------2---2------|--------2---2-------2---2------|
A|--------2---2-------2---2------|--------2---2-------2---2------|
E|--------0---0-------0---0------|--------0---0-------0---0------|
money A lot of
(That's what I want)
e|------- ------- ------- -------|------- ------- ------- -------|

B|-------------------------------|-------------------------------|
G|0---0---4---5---6-------4---0--|4---0---4---6-------4---4---4--|
D|-------------------------------|-------------------------------|
A|-------------------------------|-------------------------------|
E|0---0---3---4---5-------3---0--|3---0---3---5-------3---3---3--|
e|------- 0---0-- 0------ 0---0--|0------ 0---0-- ----0-- ----0--|
B|--------3---3---3-------3---3--|3-------3---3-------3-------3--|
G|--------1---1---1-------1---1--|1-------1---1-------1-------1--|
D|--------2---2---2-------2---2--|2-------2---2-------2-------2--|
A|--------2---2---2-------2---2--|2-------2---2-------2-------2--|
E|--------0---0---0-------0---0--|0-------0---0-------0-------0--|
money Wow yeah money, please
(That's what I want)
e|------- ------- ------- -------|------- ------- ------- -------|

B

Important: The song above is NOT stored on the Chordie server. The original song is hosted at www.ultimate-guitar.com. Chordie works as a search engine and provides on-the-fly formatting. Chordie does not index songs against artists/composers will. To remove this song please click here.

Text color:
Chord color:
Chord grids: 
Font size:    
Page size: 

A A7 B B7 E E7 G
variations - click chord images

Login - add to songbook

Transpose chords

Tuning

Rating click stars to rate

Layout
Accuracy

Jango Player

SHARE PAGE  




You need to log in to post comments