Guitar Tabs, Chords and Lyrics


Long Cool Woman  Hollies



e-------------------------------------------------------------------|
b---------------------0-----0---------------------------------------|
g-----------0-0-0---0-----0-----0-----------------------------------|
d---------0-------4-----2-----0-----0-----0-----0-----0-----0--0--0-| 2x
a---0h2---------------------------2-----2-----0-----2-----0---------|
e-0-----------------------------------3-----2-----3-----5-----3--2--|


*Like here ^ *And here ^
Now play a simple E major chord, periodically putting your pinky on the A string,
4th fret, and lifting your ring finger (This is a great way to build up your pinky):


e---| |--------------|
b---| |--------------|
g---| |--------------|
d---| |----0-----2-2-| 8x (Until singing, better to strum while you sing :)
a-2-| |-4--2--4--2-2-|
e-0-| |-0-----0------|


[E]Saturday night I was downtown
[G]Working for the [A]FB[E]I
[E]Sitting in a nest of bad men
[G]Whisky bottles [A]piling [E]high
[E]Bootlegging boozer on the west side
[G]Full of people [A]who are doing [E]wrong
[E]Just about to call up the D.A. man
[G]When I heard this woman [A]singing a [E]song

[A]A pair of 45's made me open my eyes
[B]My temperature started to rise
[B]She was a l[A]ong cool woman in a black dress
[A]Just a [G]5'9, beautiful [E]tall
[A]With just one look I was a bad mess
[A]'cos that [G]long cool woman had it [E]all
e-------------------------------| |--------------------------------------|
b-------------------------------| |----------------------------------0---|
g-1-1-1---------------------0h1-| |----------------------------------0h1-|
d--------0-----0--------0-------| |-2--2--2--2-------0-----------0-------|3x
a-----------2-------0h2---------| |-------------0h2--2-------0h2-2-------|
e-0--------------0--------0-0---| |----0--0--0----------0----------0-0---|
e---|  |--------------|
b---|  |--------------|
g---|  |--------------|
d---|  |----0-----2-2-|8x again (Yell out "wooo" after 4x)
a-2-|  |-4--2--4--2-2-|
e-0-|  |-0-----0------|



Repeat the E, G, A over all the rest of the lyrics:

I saw her headin' to the table
Well a tall walking big black cat
When charlie said I hope that you're able boy
Well I'm telling you she knows where it's at
Well suddenly we heard the sirens
And everybody started to run
A jumping out of doors and tables
Well I heard somebody shooting a gun

Well the da was pumping my left hand
And then she was a-holding my right
Well I told her don't get scared
'cos you're gonna be spared
Well I've gotta be forgiven
If I wanna spend my living
With a long cool woman in a black dress
Just a 5'9 beautiful tall
Well, with just one look I was a bad mess
'cos that long cool woman had it all

Had it all

END

+--------------------------------------------------------------------------+

| This file is the author's own work and represents their interpretation |
| of the song. You may only use this file for private study, scholarship, |
| or research. |
+--------------------------------------------------------------------------+


Ultimate-Guitar.Com © 2005

Important: The song above is NOT stored on the Chordie server. The original song is hosted at www.ultimate-guitar.com. Chordie works as a search engine and provides on-the-fly formatting. Chordie does not index songs against artists/composers will. To remove this song please click here.

Text color:
Chord color:
Chord grids: 
Font size:    
Page size: 

A B E G
variations - click chord images

Login - add to songbook

Transpose chords

Tuning

Rating click stars to rate

Layout
Accuracy

SHARE PAGE  




You need to log in to post comments