Guitar Tabs, Chords and Lyrics


Memory  Sugarcult



-----------------------------------------------------------------------------

-----------------------------------------------------------------------------
     [D]      [AaddD]       [G]     [D]                                                         
eb|--x-----x------3----x----------------------------------------------------|
Bb|--3-----3------3----3----------------------------------------------------|
Gb|--2-----x------0----2----------------------------------------------------|
Db|--0-----2------0----0----------------------------------------------------|
Ab|--x-----0------2----x----------------------------------------------------|
Eb|--x-----x------3----x----------------------------------------------------|

Chorus

     [D]     [G]    [Bm]     [A]                                                             
eb|--2----3----2---0--------------------------------------------------------|
Bb|--3----3----3---2--------------------------------------------------------|
Gb|--2----0----4---2--------------------------------------------------------|
Db|--0----0----4---2--------------------------------------------------------|
Ab|-------2----2---0--------------------------------------------------------|
Eb|-------3----x---x--------------------------------------------------------|


Verse 1:

[D]This may never start
[AaddD]We could fall apart[G]
And I'd be your mem[D]ory

[D]Lost your since of fear
[AaddD]Feelings insincere [G]
Can now be your mem[D]ory
Chorus:

[D]Get back, back
Back to where we l[G]asted
Just like I i[Bm]magined
I could never f[A]eel this way
[D]Get back, back
Back to the d[G]isaster
My heart's beating f[Bm]aster

Holding on to f[A]eel the same
Verse 2:

[D]This may never start
[AaddD]I'll tear us apart   [G]
Cannot be your en[D]emy

[D]Losing half a year
[AaddD]Waiting for you hear [G]
I'd be your anyt[D]hing
Repeat Chorus

[D]This may never start
[AaddD]Tearing out my heart [G]
Can now be your mem[D]ory

[D]Lost your since of fear
[AaddD]Feelings disappeared [G]
Can now be your mem[D]ory
Repeat Chorus

[D]This may never start
[AaddD]We could fall apart [G]
And I'd be your mem[D]ory

[D]Lost your since of fear
[AaddD]Feelings insincere  [G]
Can now be your mem[D]ory
| / slide up
| slide down
| h hammer-on
| p pull-off
| ~ vibrato
| + harmonic
| x Mute note
===============================================================================

END

+--------------------------------------------------------------------------+

| This file is the author's own work and represents their interpretation |
| of the song. You may only use this file for private study, scholarship, |
| or research. |
+--------------------------------------------------------------------------+


Ultimate-Guitar.Com © 2005

Important: The song above is NOT stored on the Chordie server. The original song is hosted at www.ultimate-guitar.com. Chordie works as a search engine and provides on-the-fly formatting. Chordie does not index songs against artists/composers will. To remove this song please click here.

Text color:
Chord color:
Chord grids: 
Font size:    
Page size: 

A AaddD Bm D G
variations - click chord images

Login - add to songbook

Transpose chords

Tuning

Rating click stars to rate

Layout
Accuracy

SHARE PAGE  




You need to log in to post comments