Guitar Tabs, Chords and Lyrics


Crazy  Aerosmith



e|--------12-12-12-12--------------------------------------------|

B|-12b14=-------------12b14r12-----------------------------------|
G|-----------------------------11-11-12b14-12b14-12b14=-12b14r12-|
D|---------------------------------------------------------------|
A|---------------------------------------------------------------|
E|---------------------------------------------------------------|
e|----------12-12-12-12-------------------------------------------------|
B|-10-12b14-------------10-10-12b14-10-12b14-10-12b14-------------------|
G|----------------------------------------------------12b14-12b14-12b14-|
D|----------------------------------------------------------------------|
A|----------------------------------------------------------------------|
E|----------------------------------------------------------------------|
[A]You know you drive me up a [F#m]wall the way you make good of all the [D]nasty
tricks you pull. Seems like we're [Dm]makin' up more than we're makin'
love [A]and it always seems you got so[F#m]mn' on your mind other than me
[D]Girl, you got to change your [Dm]crazy ways, you hear me
[A]Say you're [D]leavin' on a seven thirty train and that you're [F#m]headin' out
to Holly[D]wood
e|---------------|
B|---------------|
G|-----2-4/6-4-2-|
D|-2h4---4/6-4-2-|
A|---------------|
E|---------------|


[A]Girl you been givin' [D]me that line so many times it kinda gets[F#m] like
feelin' bad looks[D] good, yeah

e|----------12-------12-|
B|-10-12b14----12b14----|
G|----------------------|
D|----------------------| Harmonica Part
A|----------------------|
E|----------------------|


[E]That kinda [F#m]lovin' turns a [G]man to a [D]slave

e|-------------------5---5/10-10----10----|
B|---------------5/7-----5/10----10----10-|
G|-----2-4-4b6----------------------------|
D|-2-4------------------------------------| Guitar Part
A|----------------------------------------|
E|----------------------------------------|


[E]That kinda [F#m]lovin' sends a [G]man right to his [D]grave[E]

e|-------------------5---5/10-10----10/12-12----|
B|---------------5/7-----5/10----10-10/12----12-|
G|-----2-4-4b6----------------------------------|
D|-2-4------------------------------------------| Guitar Part
A|----------------------------------------------|
E|----------------------------------------------|


I go [A]crazy, [F#m]crazy, [D]baby, I go [Dm]crazy
[A]You turn it [F#m]on, then you're [Dm]gone, yeah, you [E]drive me
[A]Crazy, [F#m]crazy, [D]crazy for you [Dm]baby
[Bm]What can I [E]do, honey,[C#m] I feel like the[F#m] col[E]or [D]blue[Dm]

MANDOLIN PART ARRANGED FOR GUITAR

e|-9-9-9-9-9-9-10-10-12-12-14-14-14-14-12-12-10-10-9-9-7-7-5-5-5-5-|
B|-----------------------------------------------------------------|
G|-----------------------------------------------------------------|
D|-----------------------------------------------------------------|
A|-----------------------------------------------------------------|
E|-----------------------------------------------------------------|
e|-------------------|
B|-------------------|
G|-----2-4-4b6-4b6-2-|
D|-2h4---------------|Guitar Part
A|-------------------|
E|-------------------|


[A]You're packin' up your [D]stuff and talkin' like it's tough and [F#m]tryin' to
tell me that it's time to[D] go, yeah
[A]But I know you ain't [D]wearin' nothin' underneath that overc[F#m]oat
And it's all a [D]show, yeah

MANDOLIN 2ND PART

e|-12-12-12-12-14-14-16-16-17-17-17-17-17-19-19-21-21-21-19-19-17-17-14-14-|
B|-------------------------------------------------------------------------|
G|-------------------------------------------------------------------------|
D|-------------------------------------------------------------------------|
A|-------------------------------------------------------------------------|
E|-------------------------------------------------------------------------|


[E]That kinda [F#m]lovin' makes me wanna [G]pull down the [D]shade, yeah

e|-------------------5---5/10-10----10----|
B|---------------5/7-----5/10----10----10-|
G|-----2-4-4b6----------------------------|
D|-2-4------------------------------------| Guitar Part
A|----------------------------------------|
E|----------------------------------------|


[E]That kinda [F#m]lovin' yeah now I'm [G]never, never, never, never
[D]gonna be the sa[E]me

e|-------------------5---5/10-10----10/12-12----|
B|---------------5/7-----5/10----10-10/12----12-|
G|-----2-4-4b6----------------------------------|
D|-2-4------------------------------------------| Guitar Part
A|----------------------------------------------|
E|----------------------------------------------|



I go [A]crazy, [F#m]crazy, [D]baby, I go [Dm]crazy
[A]You turn it [F#m]on, then you're [D]gone, yeah, you [E]drive me
[A]Crazy, [F#m]crazy, [D]crazy for you [Dm]baby
[Bm]What can I [E]do, ho[C#m]ney, I feel like the[F#m] col[E]or [D]blue[Dm]
[A]I'm losin' my [F#m]mind, girl, 'cause [D]I'm goin' [E]crazy
SOLO

e|-----------------------------------------------|
B|-----------------------------------------------|
G|-----------------------------------------------|
D|---------------------------------------2-2h4-2-|
A|-2bu-2bu-2bu-2bu-2bu-2bu-2bu-2bu-2bu 0---------|
E|-----------------------------------------------|
e|-----------------------------------|
B|---------------------------2-5-5/7-|
G|-----2-4bu~--5b7-4-4-2-4/6---------|
D|-2-4-------------------------------|
A|-----------------------------------|
E|-----------------------------------|
e|-------------------------------|
B|-12b14-10-13b15-12b13-12b13-10-|
G|-------------------------------|
D|-------------------------------|
A|-------------------------------|
E|-------------------------------|
e|------------------------------------------|
B|------10-10------10-10------10-10------10-|
G|-9h11-------9h11-------9h11-------9h11----|
D|------------------------------------------|
A|------------------------------------------|
E|------------------------------------------|
e|-10/17-17----17----19b21-17-------14--------------|
B|-10/17----17----17----------17b19----17-14-16b18~-|
G|--------------------------------------------------|
D|--------------------------------------------------|
A|--------------------------------------------------|
E|--------------------------------------------------|
e|-----------------------------------------------|
B|----------------------17b19-17-15-15h17--------|
G|-------14h16-16b18-14-------------------16b18~-|
D|-14h16-----------------------------------------|
A|-----------------------------------------------|
E|-----------------------------------------------|
e|-17----17----17----17----22b24-22b24-22b24-17-|
B|----17----17----17----17----------------------|
G|----------------------------------------------|
D|----------------------------------------------|
A|----------------------------------------------|
E|----------------------------------------------|
e|-----------------------------------------------------|
B|-------17-------17-------17-------17-------17--------|
G|-19b21----19b21----19b21----19b21----19b21----19b21~-|
D|-----------------------------------------------------|
A|-----------------------------------------------------|
E|-----------------------------------------------------|


[F#m]I ne[E]ed your [D]love, honey yeah

e|-------------------|
B|-17/19-17~--14h15~-|
G|-------------------|
D|-------------------|
A|-------------------|
E|-------------------|


[F#m]I ne[E]ed your [D]love

e|-------------------------------|
B|-17/19-17b19r17b19r17--14h15e~-|
G|-------------------------------|
D|-------------------------------|
A|-------------------------------|
E|-------------------------------|


[A]Crazy, [F#m]crazy, [D]crazy for you [Dm]baby
[A]I'm losin' my [F#m]mind, girl 'cause [D]I'm goin' [E]crazy
[A]Crazy, [F#m]crazy, [D]crazy for you [Dm]baby
[A]You turn it [F#m]on, then you're [D]gone, yeah, yo[E]u drive me

[A]uuhhh u[F#m]uuhhh u[D]uuhhhh uuuhhhh[Dm] uuuuhhh
e|--------17--------19-------21-|
B|--12/14-----14/15----15/17----|
G|------------------------------|
D|------------------------------|
A|------------------------------|
E|------------------------------|


[A]uuhhh u[F#m]uuhhh u[D]uuhhhh uuuhhhh uuu[E]uhhh

[A]yeah ye[F#m]ah yeah[D] yeah yeah yea[Dm]h yeah
FINISH
------------------------------------------------------------


END

+--------------------------------------------------------------------------+

| This file is the author's own work and represents their interpretation |
| of the song. You may only use this file for private study, scholarship, |
| or research. |
+--------------------------------------------------------------------------+


Ultimate-Guitar.Com © 2005

Important: The song above is NOT stored on the Chordie server. The original song is hosted at www.ultimate-guitar.com. Chordie works as a search engine and provides on-the-fly formatting. Chordie does not index songs against artists/composers will. To remove this song please click here.

Text color:
Chord color:
Chord grids: 
Font size:    
Page size: 

A Bm C#m D Dm E F#m G
variations - click chord images

Login - add to songbook

Transpose chords

Tuning

Rating click stars to rate

Layout
Accuracy

SHARE PAGE  




You need to log in to post comments