Guitar Tabs, Chords and Lyrics


Out Of My Head  Fastball



E-B-C#m-E.E7-A-E-F#7-B7-A

[E]  Sometimes I feel
Like I am [G#m]drunk behind the wheel
The [A]wheel of possibil[E]ity
How[F#7]ever it may rol[B7]l
[E]  Give it a spin
See if you can som[G#m]ehow factor in
You [A]know there's always [E]more than one way
To [F#7]say exactly [B7]what you mean to say
Chorus:
[E5]  Was I out of my [B]head or was I out of my mi[C#m]nd?
How could I have [E]ever been[E7] so blind[A]?
I was waiting for an i[E]ndication
[F#7]It was hard to find[B7]
[E] Don't matter what I say[B] only what I do  [C#m]
I never mean to [E]do bad thin[E7]gs to you [A]
               [E]                      
So quiet but I finally woke up (Backround Guitar on Solo)
F#7                       B7              A-E-G#m-A.E-F#7.B7

If you're sad then its time you spoke up too
(Solo starts here^)

Solo:
e|------------------------------------------------------------------------|
B|------------------------------------------------------------------------|
G|--------------------------9^11--11>--9------9--11--11>------9--11-------|
D|--------------------9^11----------------11--------------11---------9--9-|
A|-0-------7^9--9/11------------------------------------------------------|
E|----7^9-----------------------------------------------------------------|
e|------------------------------------------------------------------------|
B|------------------------------------------------------------------------|
G|----------------------------------------------------9--11>--9--11/13--12|
D|-11--11>*--9------9--11v9--7--7--7^9--7--9v7--9/11----------------------|
A|--------------11--------------------------------------------------------|
E|------------------------------------------------------------------------|
e|-----------------------12--14v12--14--12--------------------------------|
B|-14v12--14--12--12/14---------------------------------------------------|
G|------------------------------------------------------------------------|
D|------------------------------------------------------------------------|
A|------------------------------------------------------------------------|
E|------------------------------------------------------------------------|



Chorus


_____________________________________________________________________________
Thank You! E-mail me if you have questions. slightleywinded@hotmail.com

END

+--------------------------------------------------------------------------+

| This file is the author's own work and represents their interpretation |
| of the song. You may only use this file for private study, scholarship, |
| or research. |
+--------------------------------------------------------------------------+


Ultimate-Guitar.Com © 2005

Important: The song above is NOT stored on the Chordie server. The original song is hosted at www.ultimate-guitar.com. Chordie works as a search engine and provides on-the-fly formatting. Chordie does not index songs against artists/composers will. To remove this song please click here.

Text color:
Chord color:
Chord grids: 
Font size:    
Page size: 

A B B7 C#m E E5 E7 F#7 G#m
variations - click chord images

Login - add to songbook

Transpose chords

Tuning

Rating click stars to rate

Layout
Accuracy

SHARE PAGE  




You need to log in to post comments