Guitar Tabs, Chords and Lyrics


From The Beginning Acoustic  Emerson Lake & Palmer



[Intro-1](Harmonics)    h  p         h p p
 E ||----------[12]-|-10-12-10--7-|-5-7-5-0--|-0-2-3----8-|
 B ||------[12]-----|-------------|--------0-|------------|
 G ||--[12]---------|-------------|----------|------------|
 D ||---------------|-------------|----------|------------|
 A ||---------------|-------------|----------|----------0-|
 E ||-0-------------|-0-----------|-0--------|------------|

(LICK-1)
 E ||--------0----------0------| ||-----0-------0----| ||----------------|
 B ||-----10--10------12-12----| ||---6---6---6---6--| ||----------------|
 G ||---11------11--11-----11--| ||--5-----5-5-----5-| ||----------------|
 D ||--0----------0----------0-| ||-0-------0-------0| ||------0---------|
 A ||--------------------------| ||------------------| ||-------------0--|
 E ||--------------------------| ||------------------| ||--2/3----2/3----|

                3X                                   4X            [slide] [slide]
--------------------------------------------------------------------------

[Cbords] 
Am9 - 005503 G - 005433
Em11 - 004030 Dm7 - x57565
C - x3201x Dm6 - 353435
CMaj9 - x2001x E7sus4(addF) - x23230
F - xx3211 F9 - xx3213
-------------------------------------------------

[Intro-2] 
[Am9] [Am9]  [Em11] [Em11]     [Am9] [Am9]  [Em11] [Em11] 
(Play the open "A" bass note first in each chord)

[C]walk-down[CMaj9]         [F/F9]
(arpagiate down) (arpagiate down on F, up on F9)

  [G]                    (Lick-1)   [Am9] [Am9]  [Em11] [Em11]
(arpagiate down on "G")
-----------------------------------------------------------------

[Verse] 
[Am9]It m[Am9]ight have been thin[Em11]gs I [Em11]missed
C Cmaj9 F/F9 G (Lick-1) Am9 Am9 Em11 Em11
But don't be unkind, it don't mean I'm blind
P[Am9]erha[Am9]ps there's [Em11]a thi[Em11]ng or two
[C]I think of [Cmaj9]lying in[F/F9] bed, [G]
(Lick-1) Am9 Am9 Em11 Em11 Am9 Am9 Em11 Em11
I shouldn't have said, but there it is
------------------------------------------------------------------                                  

[Bridge/Cborus] 
Dm7 Dm6 (arpagiate down and up for Dm7-Dm6-E7sus4(addF)
You see it's all clear
You were [Dm7]meant to be [E7sus4(addF]here

Trill on D-string 2nd & 3rd fret 8X(E & F) - Hammer-on Low-E 3rd fret(G)

(Fill-1) (Intro-2)
From the beginning


---------------------------------------------------------------------

[Verse] 
[Am9]Well[Am9] maybe I might hav[Em11]e cha[Em11]nged
C Cmaj9 F/F9 G (Fill-1) Am9 Am9 Em11 Em11
And not been so cruel, not been such a fool
[Am9]What[Am9]ever was don[Em11]e is [Em11]done
C Cmaj9 F/F9 G (Fill-1) Am9 Am9 Em11 Em11
I just can't recall, it doesn't matter at all
----------------------------------------------------------

[Bridge/Cborus] 

END

+--------------------------------------------------------------------------+

| This file is the author's own work and represents their interpretation |
| of the song. You may only use this file for private study, scholarship, |
| or research. |
+--------------------------------------------------------------------------+


Ultimate-Guitar.Com © 2005

Important: The song above is NOT stored on the Chordie server. The original song is hosted at www.ultimate-guitar.com. Chordie works as a search engine and provides on-the-fly formatting. Chordie does not index songs against artists/composers will. To remove this song please click here.

Text color:
Chord color:
Chord grids: 
Font size:    
Page size: 

Am9 C Cmaj9 Cmaj9 Dm7 Em11 G
variations - click chord images

Login - add to songbook

Transpose chords

Tuning

Rating click stars to rate

Layout
Accuracy

SHARE PAGE  




You need to log in to post comments