Guitar Tabs, Chords and Lyrics


Today   Smashing Pumpkins


+ --------------------------------------------------------------------- +
| Ultimate Guitar Tabs Archive - your #1 source for tabs!               |
| http://www.ultimate-guitar.com/                                       |
|                                                                       |
| Over 150,000 of guitar, guitar pro and bass tabs! Also lessons, news, |
| columns and guitar forums!                                            |
+ --------------------------------------------------------------------- +

Artist: Smashing Pumpkins
Song: Today


Song: Today
Artist: Smashing Pumpkins
Album: Siamese Dream
Year: 1993
Tabbed by: DJSeebs

Last Updated: 8/12/04

Notes:
Not a hard song, but for some reason troubled some other people. 
Here's an accurate tab for yall. Have fun!
And omg, please look at the tuning. 
If anyone says this sounds half a step off ima kill someone.

INTRO#########################

Eb :12--14--12--16-12---|
Bb :--12--12--12-----12-|
Gb :--------------------|  X4
Db :--------------------|
Ab :--------------------|
Eb :--------------------|

INTRO VERSE####################
Gobs of distortion

Eb :-------------------|-----------------|
Bb :-------------------|-----------------|
Gb :9-9-9-9-9----------|-----------------|
Db :9-9-9-9-9-9-9-9-9-9|7-7-7-7-7-7-7-7-7| X2
Ab :7-7-7-7-7-9-9-9-9-9|7-7-7-7-7-7-7-7-7|
Eb :----------7-7-7-7-7|5-5-5-5-5-5-5-5-5|

Eb :-------------------|------------------------|
Bb :-------------------|------------------------|
Gb :9-9-9-9-9----------|------------------------|
Db :9-9-9-9-9-9-9-9-9-9|11-11-11-11-11-7-7-7-7-7|
Ab :7-7-7-7-7-9-9-9-9-9|11-11-11-11-11-7-7-7-7-7|
Eb :----------7-7-7-7-7|-9--9--9--9--9-5-5-5-5-5|

Eb :-------------------|-----------------|
Bb :-------------------|-----------------|
Gb :9-9-9-9-9----------|-----------------|
Db :9-9-9-9-9-9-9-9-9-9|7-7-7-7-7-7-7-7-7|
Ab :7-7-7-7-7-9-9-9-9-9|7-7-7-7-7-7-7-7-7|
Eb :----------7-7-7-7-7|5-5-5-5-5-5-5-5-5|


VERSE 1##########################
Same as above, no distortion. Play nicely. 



CHORUS 1############################
Distortion again

Eb :-------------------|--------------------------|
Bb :-------------------|--------------------------|
Gb :-------------------|--------------------------| X3
Db :4-4-4-4-4-7-7-7-7-7|11-11-11-11-11-11-11-11-11|
Ab :4-4-4-4-4-7-7-7-7-7|11-11-11-11-11-11-11-11-11|
Eb :2-2-2-2-2-5-5-5-5-5|-9--9--9--9--9--9--9--9--9|


Eb :-------------------|-------------------|
Bb :-------------------|-------------------|
Gb :-------------------|----------8-8-8-8-8|
Db :4-4-4-4-4-7-7-7-7-7|6-6-6-6-6-8-8-8-8-8|
Ab :4-4-4-4-4-7-7-7-7-7|6-6-6-6-6-6-6-6-6-6|
Eb :2-2-2-2-2-5-5-5-5-5|4-4-4-4-4----------|


The World Famous Bend
Eb :-----------------------------|
Bb :-6b8~~~~~~~~~~~~~~~~~~~~~~~--| 

Important: The song above is NOT stored on the Chordie server. The original song is hosted at www.ultimate-guitar.com. Chordie works as a search engine and provides on-the-fly formatting. Chordie does not index songs against artists/composers will. To remove this song please click here.

This song is displayed as text-only. Transposing and tuning is only available for chordpro-songs.

Login - add to songbook

Rating click stars to rate

Layout
Accuracy

SHARE PAGE  




You need to log in to post comments