Guitar Tabs, Chords and Lyrics


Wake Me Up When September Ends  Green Day



e|---------------------------------------------------------|

B|------3-----3-------3-----3-------3-----3-------3-----3--|
G|----0-----0-------0-----0-------0-----0-------0-----0----|
D|--5-----5-------5-----5-------5-----5-------5-----5------|
A|---------------------------------------------------------|
E|---------------------------------------------------------|
e|---------------------------------------------------------|
B|------3-----3-------3-----3-------3-----3-------3-----3--|
G|----0-----0-------0-----0-------0-----0-------0-----0----|
D|--5-----5-------4-----4-------2-----2-------0-----0------|
A|---------------------------------------------------------|
E|---------------------------------------------------------| e|------3-----3-------3-----3----| B|------5-----5-------4-----4----| G|----5-----5---5---5-----5---5--| D|--5-----5-------5-----5--------| A|-------------------------------| E|-------------------------------|
Ending 1:
e|------------------------------|
B|------3-----3-------3-----3---|
G|----0-----0---0---0-----0---0-|
D|--5-----5-------5-----5-------|
A|------------------------------|
E|------------------------------|

Ending 2:
e|-----------------------------------|
B|------3-----3-------3-------3------|
G|----0-----0---0---0---0---0--0-----|
D|--5-----5-------5-------4----------|
A|-----------------------------------|
E|-----------------------------------|



Riff 2:
e|------------------------------------------------------------|
B|------3-----3-------3-----3-------3-----3-------3-------3---|
G|----0-----0---0---0-----0---0---0-----0---0---0---0---0--0--|
D|--2-----2-----------------------------------5-------4-------|
A|----------------2-----2-------3-----3-----------------------|
E|------------------------------------------------------------|
e|------------------------------------------------------------|
B|------3-----3-------3-----3-------3-----3-------3-----3-----|
G|----0-----0---0---0-----0---0---0-----0-------0-----0---0---|
D|--2-----2-----------------------------------0-----0---------|
A|----------------2-----2-------3-----3-----------------------|
E|------------------------------------------------------------|



Riff 3:

e|---------------------------------------------------------|
B|------3-----3-------3-----3-------3-----3-------3-----3--|
G|----0-----0-------0-----0-------0-----0-------0-----0----|
D|--5-----5-------4-----4-------2-----2-------0-----0------|
A|---------------------------------------------------------|
E|---------------------------------------------------------|


    [C]              [Cm]                                                              
e|-------------------------------|
B|--5-5-5-5-5-5-5-4-4-4-4-4-4-4--|
G|--5-5-5-5-5-5-5-5-5-5-5-5-5-5--|
D|--5-5-5-5-5-5-5-5-5-5-5-5-5-5--|
A|--3-3-3-3-3-3-3-3-3-3-3-3-3-3--|
E|-------------------------------|


Ending 3:
    [G5]                                                                            
e|------------------------------|
B|------------------------------|
G|------------------------------|
D|--5-5-5-5-5-5-5-5-5-5-5-5-5-5-|
A|--5-5-5-5-5-5-5-5-5-5-5-5-5-5-|
E|--3-3-3-3-3-3-3-3-3-3-3-3-3-3-|


Ending 4:
    [G5]                    [G5/F#]                                                       
e|------------------------------|
B|------------------------------|
G|------------------------------|
D|--5-5-5-5-5-5-5-5-5-5-5-5-5-5-|
A|--5-5-5-5-5-5-5-5-5-5-5-5-5-5-|
E|--3-3-3-3-3-3-3-3-3-3-2-2-2-2-|



Riff 4:
    [Em]               [Bm]               [C5]               [G5]        [G5/F#]                      
e|----------------------------------------------------------------|
B|-----------------3-3-3-3-3-3-3----------------------------------|
G|--0-0-0-0-0-0-0--4-4-4-4-4-4-4--5-5-5-5-5-5-5-------------------|
D|--2-2-2-2-2-2-2--4-4-4-4-4-4-4--5-5-5-5-5-5-5--5-5-5-5-5-5-5-5--|
A|--2-2-2-2-2-2-2--2-2-2-2-2-2-2--3-3-3-3-3-3-3--5-5-5-5-5-5-5-5--|
E|--0-0-0-0-0-0-0--------------------------------3-3-3-3-2-2-2-2--|


    [Em]               [Bm]               [C5]               [D5]                              
e|----------------------------------------------------------------|
B|-----------------3-3-3-3-3-3-3----------------------------------|
G|--0-0-0-0-0-0-0--4-4-4-4-4-4-4--5-5-5-5-5-5-5--7-7-7-7-7-7-7-7--|
D|--2-2-2-2-2-2-2--4-4-4-4-4-4-4--5-5-5-5-5-5-5--7-7-7-7-7-7-7-7--|
A|--2-2-2-2-2-2-2--2-2-2-2-2-2-2--3-3-3-3-3-3-3--5-5-5-5-5-5-5-5--|
E|--0-0-0-0-0-0-0-------------------------------------------------|


Solo:
    [Em]              [Bm]                [C5]               [G5]        [G5/F#]                      
e|-----7----7-7-----7----7-7-----8----8-8--101010101010--8-8-8-8-8-8--|
B|--88---88--8---77---77--7---88---88--8---8-8-8-8-8-8---7-7-7-7-7-7--|
G|--------------------------------------------------------------------|
D|--------------------------------------------------------------------|
A|--------------------------------------------------------------------|
E|--------------------------------------------------------------------|


    [Em]               [Bm]               [C5]                                             
e|-----7----7-7-----7----7-7-----8----8-8-------|
B|--88---88--8---77---77--7---88---88--8--------|
G|----------------------------------------------|
D|----------------------------------------------|
A|----------------------------------------------|
E|----------------------------------------------|


     [G5]                [G5/F#]             [G5]             [G5/F#]                                
e|--101010101010--8-8-8-8-8-8--101010101010--8-8-8-8-8-8-|
B|--8-8-8-8-8-8---7-7-7-7-7-7--8-8-8-8-8-8---7-7-7-7-7-7-|
G|-------------------------------------------------------|
D|-------------------------------------------------------|
A|-------------------------------------------------------|
E|-------------------------------------------------------|

Outro:
C Cm G5 x3
e|----------------------------------------------------------|
B|--5-5-5-5-5-5-5-4-4-4-4-4-4-4-----------------------------|
G|--5-5-5-5-5-5-5-5-5-5-5-5-5-5-----------------------------|
D|--5-5-5-5-5-5-5-5-5-5-5-5-5-5-5-5-5-5-5-5-5-5-5-5-5-5-5-5-|
A|--3-3-3-3-3-3-3-3-3-3-3-3-3-3-5-5-5-5-5-5-5-5-5-5-5-5-5-5-|
E|------------------------------3-3-3-3-3-3-3-3-3-3-3-3-3-3-|


END

+--------------------------------------------------------------------------+

| This file is the author's own work and represents their interpretation |
| of the song. You may only use this file for private study, scholarship, |
| or research. |
+--------------------------------------------------------------------------+


Ultimate-Guitar.Com © 2005

Important: The song above is NOT stored on the Chordie server. The original song is hosted at www.ultimate-guitar.com. Chordie works as a search engine and provides on-the-fly formatting. Chordie does not index songs against artists/composers will. To remove this song please click here.

Text color:
Chord color:
Chord grids: 
Font size:    
Page size: 

Bm C C5 Cm D5 Em G5 G5/F#
variations - click chord images

Login - add to songbook

Transpose chords

Tuning

Rating click stars to rate

Layout
Accuracy

SHARE PAGE  




You need to log in to post comments