Guitar Tabs, Chords and Lyrics


Bless The Broken Road  Rascal Flatts



----------------------------------------------------------------------------

----------------------------------------------------------------------------
e--3-------3-----------0--0-1-1-0----------12-13-15-15-13-12----------12----13-13-12----------|
b----3-1-----3-1-0-1-3---3--------1--------------------------12-13-15----------------12-12h13-|
g---------------------------------------------------------------------------------------------|
d---------------------------------------------------------------------------------------------|
a---------------------------------------------------------------------------------------------|
E---------------------------------------------------------------------------------------------|
[C]I set[Fmaj7] out on a na[G]rrow [Am7]way, m[F]any ye[G]ars a[C]go,
[C]Hoping[Fmaj7]  I  would fi[G]nd tr[Am7]ue love, al[F]ong the bro[G]ken ro[C]ad,
But[Am7] I got lost a t[G]ime or two,
[F]wipe my [C]brow and kept [Dm]pushing thr[G]ough,
[C]I couldn't[Fmaj7] see how ev[G]ery [Am7]sign, p[F]ointed st[G]raight to y[C]ou,
(chorus)
[C]Every l[F]ong lost dr[C]eam, led me to wh[G]ere you a[C]re,
Others who b[F]roke my h[Am7]eart, they were like N[Dm]orth-e[C]rn s[G]tars,
[C]Pointing me [F]on my [C]way, into your lo[G]ving [Am7]arms,
This much I [Dm]know [C]is t[F]rue,
C Fmaj7 G Am7 F G C - (play Intro)
That God bless the broken road that lead me straight to you,


(verse 2)
I think about the years I spent, just passin through,
I'd like to have the time I lost, and give it back to you,
But you just smile and take my hand,
You've been there you understand,
It's all part of a grander plan, that is commin true,


(chorus)
[C]Every l[F]ong lost dr[C]eam, led me to wh[G]ere you a[C]re,
Others who b[F]roke my h[Am7]eart, they were like N[Dm]orth-e[C]rn s[G]tars,
[C]            [F]      [C]                 [G] [Am7] 
Pointing me on my way, into your loving arms,
This much I [Dm]know [C]is t[F]rue,
That [C]God [Fmaj7]bless the br[G]oken [Am7]road that l[F]ead me st[G]raight to y[C]ou,

First solo
e|--------------------------------------8-10-13-12----12h15p12---------------------------------|
B|------------------------------------8------------13----------13------------------------------|
G|-12~-10-9-----5--5--5----------5--5-------------------------------10-9--9-7-5--9/4/5---------|
D|---------10---5--5--5--3-3-5-7-------------------------------------x-x--x-x-x--x-x-x---------|
A|--------------3--3--3----------------------------------------------8-7--7-5-3--7/2/3---------|
E|---------------------------------------------------------------------------------------------|


(Ending)
[C]Now I'm just r[F]ollin h[C]ome, into my lo[G]vers [Am7]arms,
This much I [Dm]know [C]is t[F]rue,
That [C]God [Fmaj7]bless the br[G]oken [Am7]road that l[F]ead me st[G]raight to y[C]ou,

Second "solo"
e|----------------------------------|
B|-12h13-13-------------------------|
G|-----------9p7--------------------|
D|---------------9h10--10p9h10p9h10-|
A|----------------------------------|
E|----------------------------------|

That [C]God [Fmaj7]bless the br[G]oken [Am7]road, that [F]lead me s[G]traight, to y[C]ou,

Outro - C - Fmaj7 - G - Am7 - F - G - C - (G)
        C - Fmaj7 - G - Am7 - F - G - C



| / slide up
| slide down
| h hammer-on
| p pull-off
| ~ vibrato
| + harmonic
| x Mute note
============================================================================

END

+--------------------------------------------------------------------------+

| This file is the author's own work and represents their interpretation |
| of the song. You may only use this file for private study, scholarship, |
| or research. |
+--------------------------------------------------------------------------+


Ultimate-Guitar.Com © 2005

Important: The song above is NOT stored on the Chordie server. The original song is hosted at www.ultimate-guitar.com. Chordie works as a search engine and provides on-the-fly formatting. Chordie does not index songs against artists/composers will. To remove this song please click here.

Text color:
Chord color:
Chord grids: 
Font size:    
Page size: 

Am7 C Dm F Fmaj7 G
variations - click chord images

Login - add to songbook

Transpose chords

Tuning

Rating click stars to rate

Layout
Accuracy

SHARE PAGE  




You need to log in to post comments