Guitar Tabs, Chords and Lyrics


Hey Hey My My  Neil Young

E|--------------------------------------------------------------------|
B|-----------------------------------------------------------------1--|
G|-----------------------------------------------------------------2--|
D|--------------------------0--------------------------------------3--|
A|-----0--0-----2----3--------------2---0-----------0-----------0-----|
E|----------------------------------------------3---------------------|



E|----------------------------------------------------|
B|----------------------------------------------------|
G|-------------------------0---2----0-----------------|
D|----------------0---2-------------------2-----------|
A|------3--3---------------------------------------0--|
E|----------------------------------------------------|

[Am]Hey h[G]ey my m[FM7]y,
[Am]Rock and [G]roll will never die, [FM7]
[C]There's more to t[G]he picture than meets t[Am]he eye,      [FM7]
[Am]Hey hey[G] my m[FM7]y.
SOLO 1
Play the first part of the intro
E|----------12------12------12-------------12---12---12--|
B|----------15b----15b-----15b-----------15b--15b--15b---|
G|-------------------------------------------------------|
D|-------------------------------------------------------|
A|-------------------------------------------------------|
E|-------------------------------------------------------|

X2 b Bend
Play first part of the intro 1ce

VERSE
[Am]Out of the blu[G]e and into the black,    [FM7]
[Am]They give you this [G]but ya' pay for that,[FM7]
[C]And once you're gone you[G] can't come b[Am]ack,          [FM7]
[Am]When you're out of the blue and[G] into black.       [FM7]

SOLO 2
E|----0-------------5------------------------------------------------------------|
B|----1-------------5------------------------------------------------------------|
G|----2-------------------7-----5-----------5----------5--------5----------5-----|
D|----2-------------------------------7----------h7---------h7-------h7-------7--|
A|----0--------------------------------------------------------------------------|
E|-----0-------------------------------------------------------------------------|

^ ^ ^
E|------------------------------------------------------------------------------------|
B|------------------------------------------------------------------------------------|
G|-----------------5----------------7b*-------5---------------5-----------------------|
D|-----7--------------7--7------------------------------7---------------------5~~~~~--|
A|---------------------------------------------------------------------7--------------|
E|------------------------------------------------------------------------------------|


* Bend up one step before played and strike it twice
~Whammy Bar
^ Little Hammer on and pulloffs in between

Play part 2 solo 1 again then
E|--------------------------------------------------|
B|--------------------------------------------------|
D|--------------0---------------0-------------------|
A|--------3---------3----0--3-----------3--------0--|
E|--------------------------------------------------|


VERSE
[Am]The king is gone[G] but he's not forgotten (Johnny Rotten  [Fmaj7]Johnny Rotten),
[Am]Is this the s[G]tory of Johnny Rotten (Johnny Rot[Fmaj7]ten) Rotten Johnny (Rotten Johnny ooo),
[C]It's better to bur[G]n out than t[Am]o fade away[Fmaj7],
[Am]The king is gon[G]e but he's not forgotten.             [Fmaj7]

SOLO 3
E|-------------------------------------------------------------------------------------------------|
B|-------------5---8-------------------------------------------------------------------------------|
G|-------------------------5--*---7----------------------------------------------------------------|
D|----------------------------------------5--*---7-------------------------------------------------|
A|-----------------------------------------------------5----*----7---------------------------------|
E|------------------------------------------------------------------------7---------5~~~~~~~~~~~~--|

* Random Hammerons and Pull offs Choke
~Whammy Bar

E|-----------------------------------------15~~~~~~~~~~~~~~~~--|
B|-12------15b-----------------17------------------------------|
D|-------------------------------------------------------------|
A|-------------------------------------------------------------|
E|-------------------------------------------------------------|

*Strike five times and bend before each time

E|----12---12---12-----12---12-----12-------------15--15----15---------17~~~~~~~~~--|
B|----15b--15b-15b----15b--15b---15b----------17b--17b--17b-------------------------|
G|----------------------------------------------------------------------------------|
D|----------------------------------------------------------------------------------|
A|----------------------------------------------------------------------------------|
E|----------------------------------------------------------------------------------|

B Bend
E|-----------------------------------------------|
B|-----------------------------------------------|
G|-----------------------------------------------|
D|-----------------------------------------------|
A|------3--0---3---0---------3----0~~~~~~~~~~~~--|
E|-------------------------3---------------------|


VERSE
[Am]Hey m[G]y,       [FM7]
[Am]Rock and ro[G]ll will never die,      [FM7]
[C]There's more to the picture th[G]an meets th[Am]e eye,             [FM7]
[Am]Hey h[G]ey my my.   [FM7]

SOLO 4
E|-------------------------------------------------------|
B|-------------5-------8-----------5----8--5----------5--|
G|----------------------------7--------------------7-----|
D|-------------------------------------------------------|
A|---0---------------------------------------------------|
E|-------------------------------------------------------|

|________________________________________________________________|
Octave effect

E|---------------------------17------------15----15----------------------|
B|-------------------17--------------15-----------------17~~~~~~~~~~~~~--|
G|-----14----------------------------------------------------------------|
D|-----------------------------------------------------------------------|
A|-----------------------------------------------------------------------|
E|-----------------------------------------------------------------------|

E|--12----12----12-------12---12----12----12----12---12-------12----12---12--| B|--15b--15b---15b-----15b--15b--15b---15b---15b--15b-----15b--15b--15b------| G|---------------------------------------------------------------------------| D|---------------------------------------------------------------------------| A|---------------------------------------------------------------------------| E|---------------------------------------------------------------------------|
|____________________________________________________|
Octave effect
E|------------------------------------------------------------------------------(0)--|
B|------------------------------------------------------------------------------(1)--|
G|------------------------------------------------------------------------------(2)--|
D|---------------------0~~~~~~----------------------------------------------(2)------|
A|---0------0--2-3-------------------------2--0------------------------------(0)-----|
E|---------------------------------------------------3~~~~~~----------------(0)------|

* Play the above riff twice as slow
( ) Change your fingers to an A minor chord and whammy it hitting your forearm against the strings
E|-----0--------------------------------------------------------15-----12-------15----12---------|
B|-----1--------------------------------------------------------------------12---------------12--|
G|-----2---------------5---4--------16~~~~~~~~~--------------------------------------------------|
D|-----2-----------------------------------------------------------------------------------------|
A|-----0-----------------------------------------------------------------------------------------|
E|-----0-----------------------------------------------------------------------------------------|

E|-----15---12--------0~~~~~~------| B|----------------------1~~~~~~----| G|----------------------2~~~~~~----| D|----------------------2~~~~~~----| A|----------------------0~~~~~~~---| E|-----------------------0~~~~~~~--|

* First time whammy Second time strike and mute

Notes:
During solos Rythum guitar plays intro riff
During verses Rythum guitar plays intro riff

END
+--------------------------------------------------------------------------+
| This file is the author's own work and represents their interpretation   |
| of the song. You may only use this file for private study, scholarship,  |
| or research.                                                             |
+--------------------------------------------------------------------------+


Ultimate-Guitar.Com © 2005

Important: The song above is NOT stored on the Chordie server. The original song is hosted at www.ultimate-guitar.com. Chordie works as a search engine and provides on-the-fly formatting. Chordie does not index songs against artists/composers will. To remove this song please click here.

Text color:
Chord color:
Chord grids: 
Font size:    
Page size: 

Am C Fm7 Fmaj7 G
variations - click chord images

Login - add to songbook

Transpose chords

Tuning

Rating click stars to rate

Layout
Accuracy

SHARE PAGE  




You need to log in to post comments