Guitar Tabs, Chords and Lyrics


Better Together  Jack Johnson



e------------------------------------------------------------------|

B-------10-----8-----5-----3--------5--------8-------10-------8----|
G---7/9----9/7---7/4---4/2---2/4------4/7------7/9------9/7-----7--|
D------------------------------------------------------------------|
A------------------------------------------------------------------|
E------------------------------------------------------------------|
e---3-----3-3---3-----3-3----3-----3-3---0-----2-2-----------------|
B---3-----3-3---3-----3-3----1-----1-1---1-----3-3-----------------|
G---0-----0-0---0-----0-0----0-----0-0---2-----2-2-----------------|
D---0-----0-0---2---0--------2-----2-2---2---0---------------------|
A--------------------------3-----2-----0---------------------------|
E-3-----2-----0----------------------------------------------------|
No [C]song that I could [Cmaj7]sing but [am]I can try for [D]your heart and
G Gmaj7 em emmin7
Our dreams and they are made out of real things like

a [C]shoebox of photo[Cmaj7]graphs and [am]sepia-toned [D]loving

G Gmaj7 em emmin7
Love is the answer at least for most of the questions in my heart like

[C]why are we here and [Cmaj]where do we go and [am]how come its [D]so hard?

G Gmaj7 em emmin7
Its not always easy and sometimes life can be deceiving

I'll [C]tell you one thing [Cmaj7]   it's always [am]better when we're [D]together

Chorus:
(Cadd5 = 032013)

[Cadd5]mmmmm it's always [D]better when we're together

[Cadd5]Yeah we'll look at the [D]stars when we're together
[Cadd5]Well it's always [D]better when we're together
[Cadd5]Yeah it's always[D] better when we're together.
G Gmaj7 em emmin7
And all of these moments just might find their way into my dreams tonight,

But I [C]know that they'll be [Cmaj7]gone when the [am]morning light [D]sings,

G Gmaj7 em emmin
Or brings new things for tomorrow night you'll see

That [C]they'll be gone [Cmaj7]too too many [am]things I have to [D]do.

G Gmaj7 em emmin7
But if all of these dreams might find their way into my day to day scene

I'd be [C]under the im[Cmaj7]pression I was [am]somewhere in bet[D]ween

G Gmaj7 em emmin7
With only two just me and you now so many things we got to do,

or [C]places we got to [Cmaj7]be we'll sit be[am]neath the mango [D]tree now

Chorus:
Yeah it's always better when we're always together
Mmhh we're somewhere in between together
Well it's always better when we're together
Yeah it's always better when we're together

G Gmaj7 em emmin7 C Cmaj7 am D
mmmhhh mmmmhhh...

Bridge:
[Cadd5]  I believe in [D]memories they look so[Cadd5], so pretty when I [D]sleep, hey now

[Cadd5]  And when I wa[D]ke up you look so [Cadd5]pretty sleeping next to [D]me but there is

[Cadd5]  not enough [D]time. There is no,[Cadd5] no song I could [D]sing and there is no
[Cadd5]  combination of [D]words I could say but I will [Cadd5]still tell you one [D]thing
we're better together.

Outro:
e------------------------------------------------------------------|
B-------10-----8-----5-----3--------5--------8-------10-------8----|
G---7/9----9/7---7/4---4/2---2/4------4/7------7/9------9/7-----7--|
D------------------------------------------------------------------|
A------------------------------------------------------------------|
E------------------------------------------------------------------|
e---------15-------13-------10------8--------10---------13---------|
B---13/15----15/13----13/10----10/8---8/10------10/13-----13/10----|
G------------------------------------------------------------------|
D------------------------------------------------------------------|
A------------------------------------------------------------------|
E------------------------------------------------------------------|


Tabbed while thinking of someone special...

END

+--------------------------------------------------------------------------+

| This file is the author's own work and represents their interpretation |
| of the song. You may only use this file for private study, scholarship, |
| or research. |
+--------------------------------------------------------------------------+


Ultimate-Guitar.Com © 2005

Important: The song above is NOT stored on the Chordie server. The original song is hosted at www.ultimate-guitar.com. Chordie works as a search engine and provides on-the-fly formatting. Chordie does not index songs against artists/composers will. To remove this song please click here.

Text color:
Chord color:
Chord grids: 
Font size:    
Page size: 

C Cadd5 Cmaj Cmaj7 D
variations - click chord images

Login - add to songbook

Transpose chords

Tuning

Rating click stars to rate

Layout
Accuracy

SHARE PAGE  




You need to log in to post comments