Guitar Tabs, Chords and Lyrics


Graces Amazing Hands  Dave Barnes



-------------------------------------------------------------------------------

-------------------------------------------------------------------------------
    [Am]     [Em]     [D/F#]               [Am]      [Em]     [D/F#]         [C2]   [C]    [C2]                        
e|-----x---------------------------------------------------|
B|---1-x-0-----3----------0-—0h1---0-----3-----------------|
G|---2-x-0-----2------0---0--0h2---0-----2p0------0--------|
D|-----x------------0-0h2p0-------------------0---0h2--2p0-|
A|--0--x---------0h2---------0------------------3-3----3---|
E|-----x-0-----2-------------------0-----2-----------------|

Some verss start with this hammer on
    [Am]                                                                            
e|------|
B|--0h1-|
G|--2---|
D|------|
A|--0---|
E|------|


[Am]Grace's a[Em]mazing hands[D/F#], they hold me
[Am]They're as [Em]soft as a feather [D/F#]bed   [C]
[Am]They would n[Em]ever strike [D/F#]or scold me
They know the w[Am]ords that [Em]work i[D/F#]nstead[C]

    [G]    [F]   [C]   [Bb]     [C]                                                             
e|--3-------------------------------------------------------------------------|
B|--3---2--1------------------------------------------------------------------|
G|------3--0---3---0----0-----------------------------------------------------|
D|-------------3---2p0--------------------------------------------------------|
A|---------3---1---3--3-------------------------------------------------------|
E|--3---1---------------------------------------------------------------------|

[G]I always tho[F]ught that love was [C]frightening[Bb]   [C]
[G]I always th[F]ought it would be so r[C]ough [Bb]    [C]
[G]But love has s[F]ent me down an a[C]ngel [Bb]   [C]
G F C Bb Am (into intro chords)
And I knew it was grace, just by her touch
Grace's amazing hands, they're ugly
They are bruised by the blows that I have blown
She knows well I don't deserve her
But she laughs and says, "that's the way love goes"

    [E]  [F#m]     [G#m]     [Am]                     

e|-----------------------------------------------------------------------|
B|-----------------------------------------------------------------------|
G|--1---2---4---5--------------------------------------------------------|
D|--2---2---4---5--------------------------------------------------------|
A|--2--------------------------------------------------------------------|
E|--0---2---4---5--------------------------------------------------------|


[E]What[F#m] did[G#m] I d[Am]o?    [C]
What did I [G]say[D/F#]?
[E]For l[F#m]ove [G#m]to sh[Am]ine down on me, [C]and show me amazing grac[D]e?

Solo (still needs work... this is the rough idea)
e|-----------------------------------------------------------|
B|-----------------------------------------------------------|
G|--2/4--0--2/4-2/4-0---0-0---0-2-2/4--0---0-2-2/4-------0--|
D|---------------------2-----2------------2---------2-2-0----|
A|-----------------------------------------------------------|
E|-----------------------------------------------------------|
e|-----------------------------------------------------------|
B|-----------------1/3------------3/5-3-3-0-0-----0----------|
G|--4/5-4-4--0-0-------4-4--0-0---------------2-2------------|
D|---------------2--------------2-------------------0-0h2----|
A|-----------------------------------------------------------|
E|-----------------------------------------------------------|

| / slide up
| slide down
| h hammer-on
| p pull-off
| ~ vibrato
| ^ Slap
| + harmonic
| x Mute note
===============================================================================

END

+--------------------------------------------------------------------------+

| This file is the author's own work and represents their interpretation |
| of the song. You may only use this file for private study, scholarship, |
| or research. |
+--------------------------------------------------------------------------+


Ultimate-Guitar.Com © 2005

Important: The song above is NOT stored on the Chordie server. The original song is hosted at www.ultimate-guitar.com. Chordie works as a search engine and provides on-the-fly formatting. Chordie does not index songs against artists/composers will. To remove this song please click here.

Text color:
Chord color:
Chord grids: 
Font size:    
Page size: 

Am Bb C C2 D D/F# E Em F F#m G G#m
variations - click chord images

Login - add to songbook

Transpose chords

Tuning

Rating click stars to rate

Layout
Accuracy

SHARE PAGE  




You need to log in to post comments