Guitar Tabs, Chords and Lyrics


Halloween Theme   Misc. Soundtrack


+ --------------------------------------------------------------------- +
| Ultimate Guitar Tabs Archive - your #1 source for tabs!               |
| http://www.ultimate-guitar.com/                                       |
|                                                                       |
| Over 200,000 guitar, guitar pro and bass tabs! Also lessons, news,    |
| columns and guitar forums!                                            |
+ --------------------------------------------------------------------- +

Artist: Misc Soundtrack
Song: Halloween Theme


Here is the theme to "Halloween". The tightest seriel killer movie i have ever seen.
This movie is the bomb. With the tightest them to it. Here u go

Theme > Halloween
Tuning > Standard (eBGDAE)
                                        _______
e|-13-------13-------13----14-----    /       |
B|----11-11----11-11----11----11--   /        |
G|--------------------------------  /  _______|
D|--------------------------------  / |
A|-------------------------------- /  |________
E|--------------------------------/    
                                        _______
e|-11-----11-----11---12----------    /       |
B|----9-9----9-9----9----9--------   /        |
G|--------------------------------  /  _______|
D|--------------------------------  / |
A|-------------------------------- /  |________
E|--------------------------------/    

Well, there you have it. this is 100% correct. I am sure of it. HAVE FUN!!

END

+--------------------------------------------------------------------------+
| This file is the author's own work and represents their interpretation   |
| of the song. You may only use this file for private study, scholarship,  |
| or research.                                                             |
+--------------------------------------------------------------------------+

Ultimate-Guitar.Com © 2005

Important: The song above is NOT stored on the Chordie server. The original song is hosted at www.ultimate-guitar.com. Chordie works as a search engine and provides on-the-fly formatting. Chordie does not index songs against artists/composers will. To remove this song please click here.

This song is displayed as text-only. Transposing and tuning is only available for chordpro-songs.

Login - add to songbook

Rating click stars to rate

Layout
Accuracy

SHARE PAGE  




You need to log in to post comments