Guitar Tabs, Chords and Lyrics


Until The End  Tom Morello



e|-0-----0-----0---0-----0-----0---3-----3-----3-------------------|

B|---1-----1-----1---1-----1-----1---0-----0-----0---1---1-0h1-0---|
G|-----2-----2---------0-----0---------0-----0-------------------2-| x 2
D|-----------------------------------------------------------------|
A|-0---------------3-------------------------------0---0-----------|
E|---------------------------------3-------------------------------|
e|-0-----0-----0-----0-----0-----0---0-----0-----0------0-----0-----0---
B|---1-----1-----1-----1-----1-----1---1-----1-----1------1-----1-----1-
G|-----2-----2-----2-----2-----2---------0-----0------------2-----2-----
D|----------------------------------------------------------------------
A|-0---------------------------------3---------------2--0---------------
E|----------------------------------------------------------------------
e|-3-----3-----3-----3-----3---------------------0----------------------|
B|---0-----0-----0-----0-----0-------------0----------------------------|
G|-----0-----0-----0-----0-----------1-------1--------------------------|
D|---------------------------------2---2-------2------------------------|
A|-------------------------------2-------2------------------------------|
E|-3---------------------------0----------------------------------------|
e|------------------------------------------------------------------------
B|---1-----------1-1-1-----------0-0-0---------------1-----------1-1-1----
G|---2-----0-2---0-0-0-----------0-0-0---------------2-----0-2---0-0-0----
D|---2-0h2-------2-2-2-----------0-0-0---------------2-0h2-------2-2-2----
A|-0-----------3-------3p2-2p0---2-2-2-----0h2-0---0-----------3----------
E|-----------------------------3-------0h3--------------------------------
e|-----------|--------------------------|----------------------|
B|-----------|0-0-0---------------------|----------------------|
G|-----------|0-0-0---------------------|-0-0-0-0-0-0-0-0-0-0-0| x 2
D|-----------|0-0-0---------0h2-0-------|-0-0-0-0-0-0-0-0-0-0-0|(see above)
A|-3p2-2p0---|2-2-2-----0h2-------2-0---|-2-2-2-2-2-2-2-2-2-2-2|
E|---------3-|------0h3-----------------|----------------------|
No one k[Am]nows who gave the [C]orders
no one [G]asks about the [Am]crime
no one [Am]looks behind the cur[C]tain
and no [G]one questions [Am]why
the on[Am]ly time we g[C]ot
is ri[G]ght about n[Am]ow
I cro[Am]ss my hear[C]t
I take the [G]vow
[C]I'll never tur[G]n
[G]             [Am]                       
I'll never bend
[Am]I'm with you n[G]ow
until the e[Am]nd

e|-----------------------------------------------------|
B|---1-----------1-1-1-----------0-0-0-0-0-0-0-0-0-0-0-|
G|---2-----0-2---0-0-0-----------0-0-0-0-0-0-0-0-0-0-0-|
D|---2-0h2-------2-2-2-----------0-0-0-0-0-0-0-0-0-0-0-|
A|-0-----------3-------3p2-2p0---2-2-2-2-2-2-2-2-2-2-2-|
E|-----------------------------3-----------------------|


toni[Am]ghts the t[C]est
t[G]onights the t[Am]ime
I am the pun[C]ishement
t[G]hat fits the [Am]crime
I'll break the [C]bricks
I[G]'ll pick the l[Am]ocks
I dont got n[C]othing
but i'll give what I g[G]ot
I[C]'ll never t[G]urn
I'll never [Am]bend
I'm with you n[G]ow
until the [Am]end

e|-----------------------------------------------------|
B|---1-----------1-1-1-----------0-0-0-0-0-0-0-0-0-0-0-|
G|---2-----0-2---0-0-0-----------0-0-0-0-0-0-0-0-0-0-0-|
D|---2-0h2-------2-2-2-----------0-0-0-0-0-0-0-0-0-0-0-|
A|-0-----------3-------3p2-2p0---2-2-2-2-2-2-2-2-2-2-2-|
E|-----------------------------3-----------------------|


10 t[Am]rials whose o[C]utcomes
[G]all fixed from the [Am]start
9 judges sittin c[C]ountin
[G]their money in the d[Am]ark
8 towers of i[C]ron
[G]surround the desert [Am]town
on a cold december m[C]orning
7[G] martyrs knocked them [Am]down
4 fathers still wa[C]iting
f[G]or their 5 sons to come h[Am]ome
6 mothers who know b[C]etter
a[G]nd accept that their g[Am]one
4 years ive been h[C]unted
a[G]nd still i breathe f[Am]ree
3 times I shot the s[C]herrif

and did not s[G]pare the de[Am]puty     [Am]       [Am]
2 prayers im p[C]raying
u[G]ntil were to[Am]gether
1 promise im k[C]eeping
tonight and f[G]orever
I[C]'ll never tu[G]rn
I'll never b[Am]end
im with you n[G]ow
until the e[Am]nd
I[C]'ll never tu[G]rn
I'll never b[Am]end
im with you n[G]ow   [G]    [G]
until the e[Am]nd
e|-------------------------------------------------------------------------|
B|---1-----------1-1-1-----------0-0-0--------------1-1111111111111111111-1|
G|---2-----0-2---0-0-0-----------0-0-0--------------2-2222222222222222222-2|
D|---2-0h2-------2-2-2-----------0-0-0--------------2-2222222222222222222-2|
A|-0-----------3-------3p2-2p0---2-2-2------0-2p0---0-0000000000000000000-0|
E|-----------------------------3-------0h-3-------3------------------------|


END

+--------------------------------------------------------------------------+

| This file is the author's own work and represents their interpretation |
| of the song. You may only use this file for private study, scholarship, |
| or research. |
+--------------------------------------------------------------------------+


Ultimate-Guitar.Com © 2005

Important: The song above is NOT stored on the Chordie server. The original song is hosted at www.ultimate-guitar.com. Chordie works as a search engine and provides on-the-fly formatting. Chordie does not index songs against artists/composers will. To remove this song please click here.

Text color:
Chord color:
Chord grids: 
Font size:    
Page size: 

Am C G
variations - click chord images

Login - add to songbook

Transpose chords

Tuning

Rating click stars to rate

Layout
Accuracy

SHARE PAGE  




You need to log in to post comments