Guitar Tabs, Chords and Lyrics


All My Friends Are Dead   Turbonegro


+ --------------------------------------------------------------------- +
| Ultimate Guitar Tabs Archive - your #1 source for tabs!               |
| http://www.ultimate-guitar.com/                                       |
|                                                                       |
| Over 200,000 guitar, guitar pro and bass tabs! Also lessons, news,    |
| columns and guitar forums!                                            |
+ --------------------------------------------------------------------- +

Artist: Turbonegro
Song: All My Friends Are Dead


Song: All My Friends Are Dead
Artist: Turbonegro
Album: Party Animals
Tabbed by: xstaytruex

Okay here it's a more complete version of the tab that have been already post.
Try to figure out the strumming which is pretty easy.

INTRO:

e--------------------|
B--------------------|
G--9-9-10----7-10-9--|
D--9-9-10----7-10-9--| x4 (on the 3rd and 4th time let it ring)
A--7-7-8-----5-8--7--|
E--------------------|

e------------------|-----------------------------------------------------|
B------------------|-----------------------------------------------------|
G--7-7-9----7-7-9--|-7-7-5-5-5-5---------7-7-7-7-9-9-9-9-9-9-9-9-9-9-9-9-|
D--7-7-9----7-7-7--|-7-7-5-5-5-5-7-7-7-7-7-7-7-7-7-7-7-7-7-7-7-7-7-7-7-7-|
A--5-5-7----5-5-7--|-5-5-3-3-3-3-7-7-7-7-5-5-5-5-7-7-7-7-7-7-7-7-7-7-7-7-|
E------------------|-------------5-5-5-5---------------------------------|

VERSE:

e-----------------------------|
B-----------------------------|
G--7-7-9-9-9-9-9-9-9-9-9-9-9--|
D--7-7-9-9-9-9-9-9-9-9-9-9-9--| x2
A--5-5-7-7-7-7-7-7-7-7-7-7-7--|
E-----------------------------|

e------------------------------------------------------|
B------------------------------------------------------|
G--7-7-5-5-5-5---------7-7-7-7-9-9-9-9-9-9-9-9-9-9-9-9-|
D--7-7-5-5-5-5-7-7-7-7-7-7-7-7-7-7-7-7-7-7-7-7-7-7-7-7-|
A--5-5-3-3-3-3-7-7-7-7-5-5-5-5-7-7-7-7-7-7-7-7-7-7-7-7-|
E--------------5-5-5-5---------------------------------| 

CHORUS:

e------------------------------------------------------|
B------------------------------------------------------|
G--5-5-----7-7-----9-9-9-9-9-9-9-9-9-9-9-9-------------|
D--5-5-7-7-7-7-7-7-9-9-9-9-9-9-9-9-9-9-9-9-------------|
A--3-3-7-7-5-5-7-7-7-7-7-7-7-7-7-7-7-7-7-7-------------|
E------5-5-----5-5-------------------------------------|

e----------------------------------|----------[x3]---------|
B----------------------------------|-----------------------|
G--5-5-----7-7-----6---------------|--7-7-6----------------|
D--5-5-7-7-7-7-7-7-6-(let it ring)-|--7-7-6-(let it ring)--|
A--3-3-7-7-5-5-7-7-4---------------|--5-5-4----------------|
E------5-5-----5-5-----------------|-----------------------|

VERSE:

e-----------------------------|
B-----------------------------|
G--7-7-9-9-9-9-9-9-9-9-9-9-9--|
D--7-7-9-9-9-9-9-9-9-9-9-9-9--| x2
A--5-5-7-7-7-7-7-7-7-7-7-7-7--|
E-----------------------------|

e------------------------------------------------------|
B------------------------------------------------------|
G--7-7-5-5-5-5---------7-7-7-7-9-9-9-9-9-9-9-9-9-9-9-9-|
D--7-7-5-5-5-5-7-7-7-7-7-7-7-7-7-7-7-7-7-7-7-7-7-7-7-7-|
A--5-5-3-3-3-3-7-7-7-7-5-5-5-5-7-7-7-7-7-7-7-7-7-7-7-7-|
E--------------5-5-5-5---------------------------------|

e-----------------------------|
B-----------------------------|
G--7-7-9-9-9-9-9-9-9-9-9-9-9--|
D--7-7-9-9-9-9-9-9-9-9-9-9-9--| x2
A--5-5-7-7-7-7-7-7-7-7-7-7-7--|
E-----------------------------|
       [------ P.M. -------]

e------------------------------------------------------|
B------------------------------------------------------|
G--7-7-5-5-5-5-----------------9-9-9-9-9-9-9-9-9-9-9-9-|
D--7-7-5-5-5-5-7-7-7-7-7-7-7-7-7-7-7-7-7-7-7-7-7-7-7-7-|
A--5-5-3-3-3-3-7-7-7-7-7-7-7-7-7-7-7-7-7-7-7-7-7-7-7-7-|
E--------------5-5-5-5-5-5-5-5-------------------------|

CHORUS: 

e------------------------------------------------------|
B------------------------------------------------------|
G--5-5-----7-7-----9-9-9-9-9-9-9-9-9-9-9-9-------------|
D--5-5-7-7-7-7-7-7-9-9-9-9-9-9-9-9-9-9-9-9-------------|
A--3-3-7-7-5-5-7-7-7-7-7-7-7-7-7-7-7-7-7-7-------------|
E------5-5-----5-5-------------------------------------|

e----------------------------------|----------[x3]---------|
B----------------------------------|-----------------------|
G--5-5-----7-7-----6---------------|--7-7-6----------------|
D--5-5-7-7-7-7-7-7-6-(let it ring)-|--7-7-6-(let it ring)--|
A--3-3-7-7-5-5-7-7-4---------------|--5-5-4----------------|
E------5-5-----5-5-----------------|-----------------------|

SOLO:
(not done yet)

While he plays the solo you should continue playing VERSE:

e-----------------------------|
B-----------------------------|
G--7-7-9-9-9-9-9-9-9-9-9-9-9--|
D--7-7-9-9-9-9-9-9-9-9-9-9-9--| x2
A--5-5-7-7-7-7-7-7-7-7-7-7-7--|
E-----------------------------|

e------------------------------------------------------|
B------------------------------------------------------|
G--7-7-5-5-5-5---------7-7-7-7-9-9-9-9-9-9-9-9-9-9-9-9-|
D--7-7-5-5-5-5-7-7-7-7-7-7-7-7-7-7-7-7-7-7-7-7-7-7-7-7-|
A--5-5-3-3-3-3-7-7-7-7-5-5-5-5-7-7-7-7-7-7-7-7-7-7-7-7-|
E--------------5-5-5-5---------------------------------|

CHORUS:


e------------------------------------------------------|
B------------------------------------------------------|
G--5-5-----7-7-----9-9-9-9-9-9-9-9-9-9-9-9-------------|
D--5-5-7-7-7-7-7-7-9-9-9-9-9-9-9-9-9-9-9-9-------------|
A--3-3-7-7-5-5-7-7-7-7-7-7-7-7-7-7-7-7-7-7-------------|
E------5-5-----5-5-------------------------------------|

e----------------------------------|----------[x3]---------|
B----------------------------------|-----------------------|
G--5-5-----7-7-----6---------------|--7-7-6----------------|
D--5-5-7-7-7-7-7-7-6-(let it ring)-|--7-7-6-(let it ring)--|
A--3-3-7-7-5-5-7-7-4---------------|--5-5-4----------------|
E------5-5-----5-5-----------------|-----------------------|

OUTRO:


e-----|--------[x3]--------|
B-----|--------------------|
G-7-7-|--9-9-10----7-10-9--|
D-7-7-|--9-9-10----7-10-9--| 
A-5-5-|--7-7-8-----5-8--7--|
E-----|--------------------|


Well That's About it.. Have fun!

END

+--------------------------------------------------------------------------+
| This file is the author's own work and represents their interpretation   |
| of the song. You may only use this file for private study, scholarship,  |
| or research.                                                             |
+--------------------------------------------------------------------------+

Ultimate-Guitar.Com © 2005

Important: The song above is NOT stored on the Chordie server. The original song is hosted at www.ultimate-guitar.com. Chordie works as a search engine and provides on-the-fly formatting. Chordie does not index songs against artists/composers will. To remove this song please click here.

This song is displayed as text-only. Transposing and tuning is only available for chordpro-songs.

Login - add to songbook

Rating click stars to rate

Layout
Accuracy

SHARE PAGE  




You need to log in to post comments