Guitar Tabs, Chords and Lyrics


Crazy Game Of Poker  O.A.R.



e--10-10-11-8-X-8-5-5-----------------------------------|

B--8--8--10-8-X-8-5-5-----------------------------------|
G----------------------7b-5-----5--------5-7-8--7-5h7p5-|
D---------------------------5h7------5h7----------------|
A-------------------------------------------------------|
E-------------------------------------------------------|
e----------------------------------------------------|
B--------------------------5-6-6-8-8/10-8-6-5--------|
G------------5-7b-5-5h7p5----------------------------|
D--------5h7-----------------------------------------|
A--5h6h7---------------------------------------------|
E----------------------------------------------------|
e-----------------------------------0---0-x---1--1-|
B-------------------------5-6-8-----0h1-1-x---1--1-|
G-------------------4-5-7-----------0h2-2-x---2--2-|
D---------------5-7-----------------0h2-2-x---3--3-|
A---------5-7-8---------------------0---0-x---3--3-|
E--5-7-8----------------------------------x---1--1-|
e--10b-8-8-10-8-8-7-8-8/10-8----------------------|
B-------------------------------------------------|
G-------------------------------------------------|
D-------------------------------------------------|
A-------------------------------------------------|
E-------------------------------------------------|
[C]e-0    e[G]-3    e-[Am]0    e-1[F]-|
B-1 B-3 B-1 B-1-|
G-0 G-0 G-2 G-2-|
D-2 D-0 D-2 D-3-|
A-3 A-2 A-0 A-1-|
E-0 E-3 E-0 E-1-|

Strumming Pattern: D-D-U--U-D-U


FILL IN
    [C]   [Am]                              


e---0--0-0-0-0---|
B---1--1-1-1-1---|
G---0--2-2-2-2---|
D---2--2-2-2-2---|
A---3--0-0-0-0---|
E----------------|



VERSE 1 (Chords C G Am F)
my twenty thrown down in my fist of rage
and the man to my left just folded down
johnny doubled up with a royal flush
i had three jacks and a pair of nines
my mind is turning just two shots more
there's not much left to play
then dude walks in black hat on top, what a mop
im lucky it wasnt a county cop, cause im just running out of time

FILL IN
    [C]   [Am]                                                                                                   
e---0--0-0-0-0---|
B---1--1-1-1-1---|
G---0--2-2-2-2---|
D---2--2-2-2-2---|
A---3--0-0-0-0---|
E----------------|



VERSE 2 (Chords C G Am F)
Who's up for game two
what to do
my wallet's gettin thin
and i just lost my watch last night
well i gotta problem
just one answer
gotta throw it all down
and kiss it goodbye
Yeah!

FILL IN
    [C]   [Am]                                                                                                  
e---0--0-0-0-0---|
B---1--1-1-1-1---|
G---0--2-2-2-2---|
D---2--2-2-2-2---|
A---3--0-0-0-0---|
E----------------|


CHORUS (Chords C G Am F)
That was a crazy game of poker
(That was a crazy game of poker)
I lost it all
(I lost it all)
but someday i'll be back again
And I, never to fold.
(never to fold)

FILL IN
    [C]   [Am]                                                                                                  
e---0--0-0-0-0---|
B---1--1-1-1-1---|
G---0--2-2-2-2---|
D---2--2-2-2-2---|
A---3--0-0-0-0---|
E----------------|


VERSE 3 (Chords C G Am F)
Who's up for game three
i can barely see the bourbon drowning next to me
And i just lost it all
well there's a man sittin next to me
Red, was smiling
cause its funny
i don't have no money tonight
yeaaaaaaaahhhhhhh

FILL IN
    [C]   [Am]                                                                                                  
e---0--0-0-0-0---|
B---1--1-1-1-1---|
G---0--2-2-2-2---|
D---2--2-2-2-2---|
A---3--0-0-0-0---|
E----------------|


CHORUS (Chords C G Am F)
That was a crazy game of poker
(That was a crazy game of poker)
I lost it all
(I lost it all)
but someday i'll be back again
And I, never to fold.
(never to fold)

Solo 1 (3:00) (From here on in there is no strumming, but it sounds fine if you do Chords C G Am F)

e--8---8-10-10-10-/12-8-8----------------------------|
B----8-8-8--8--8------8-8----------------------------|
G---------------------------7b-5-----5-7b-5----------|
D--------------------------------5h7-----------------|
A----------------------------------------------------|
E----------------------------------------------------|
e--8-5-----------------------------------------------|
B------8-5-------------------------------------------|
G----------7-5-5h7-5-----5-7-7b-7-7-5-7--------------|
D--------------------5h7-----------------------------|
A----------------------------------------------------|
E----------------------------------------------------|
e----------------------8-8---8-8---10-10-10-8--------|
B------------------8---8-8-8-----8-8--8--8--8--------|
G------------4-5-7---7-------------------------------|
D--------5-7-----------------------------------------|
A--5-7-8---------------------------------------------|
E----------------------------------------------------|
e--12----12----13-12-15-13-12-10-8-7-8---------------|
B-----12----12---------------------------------------|
G----------------------------------------------------|
D----------------------------------------------------|
A----------------------------------------------------|
E----------------------------------------------------|


Bop bop bop...
I say now skittleedat dat,
Well how bout that?
I'm coming out the front never coming out the back

And I walked into the bar yesterday
Cause I had something to do, something to say
And Johnny walked in right behind me and I didn't turn around
Til I heard the sound of his feet falling on the ground
I looked over my shoulder and I saw a clown
And I said what'cha doin' in the bar tonight.

So I said Johnny whatcha doing tonight?
He looked at me with a face full of fright
And I said, how bout a revolution?
And he said right.
I say of, you say a
I say revolution, and you say jah
I say of, you say a
I say revolution, and you say jah dah dah
Day day oh!

Solo 2 (4:21) (after oh ah revolution jah)


e----------------------------------------------------|
B----------------------------------------------------|
G--------------4-5-7-7-7/9-9-7-5-4-------------------|
D----------5-7---------------------------------------|
A----5-7-8-------------------------------------------|
E--7-------------------------------------------------|
e----------------------------------------------------|
B----------------------------------------------------|
G--7-5-5-4-------------------------------------------|
D-----------7-5--------------------------------------|
A-----------------8-7-8~-7~--------------------------|
E----------------------------------------------------|
e--10-10-10-8-10-8--8-10-8-5-------------------------|
B--8--8--8--8-8--8--8-8--8-5-------------------------|
G----------------------------7-5-----5---------------|
D--------------------------------5h7-----------------|
A----------------------------------------------------|
E----------------------------------------------------|
e----------------------------------------------------|
B----------------------------------------------------|
G--5-55------5-77~-7-7/9-7-5-------------------------|
D--5-55--5h7-----------------------------------------|
A----------------------------------------------------|
E----------------------------------------------------|


And I said, what'cha looking at?
He hit me across the face with a bat
I grabbed my .45 and I said let's get out and go
So he opened the door and said do what you're here for
I said I'm wandering round the road four to four
And I said I been walking for about a thousand years.

And my feet are growing tired
My eyes a little wired
Don't know what to do unless I retire
And he just said let's play some crazy poker

So I said Johnny whatcha doing tonight?
He looked at me with a face full of fright
And I said, how bout a revolution?
And he said right.
I say oh, you say ah
I say revolution, and you say jah
I say oh, you say ah
I say revolution, and you say jah dah dah
Day day oh!


Solo 3 (5:45)

e--8-8-8-8-10-8--8-10-8-7~--7-7-7-7-7/8-7-5----------|
B--8-8-8-8-8--8--8-8--8---------------------8--------|
G----------------------------------------------------|
D----------------------------------------------------|
A----------------------------------------------------|
E----------------------------------------------------|
e----------------5-7-8-8/10-8------------------------|
B----------5-6-8-------------------------------------|
G----4-5-7-------------------------------------------|
D--7-------------------------------------------------|
A----------------------------------------------------|
E----------------------------------------------------|
e--15----15----15-15-13-12-10-10-8-8/12-12-10-8------8------8--10-10-10-12-8-|
B-----15----15----15----------------------------8h10----8h10---8--8--8---8-8-|
G----------------------------------------------------------------------------|
D----------------------------------------------------------------------------|
A----------------------------------------------------------------------------|
E----------------------------------------------------------------------------|



I said that, was the craziest game of poker that I ever saw
I said that, was the craziest game of poker that I ever saw
But I'm not gonna quit and I'm not gonna stop
Don't give a shit cause I got the drop
Johnny just got two eyes just like mine
And I'm feeling kinda funky, kinda fine

And I drank a bottle of whiskey, 'fore I came
Came to the bar to see what's the same
I saw my man named Johnny sittin' across the table from me

And to my left was a man, he had no chin
Didn't really think about starting a scene
The man to my right wasn't feeling kinda nice
He looked kinda mad and I felt bad
Beacuse I took his money last night it's kinda funny
But now I'm just struggling--
I need a honey-bunny.
I don't know what to say anymore
So I'm just gonna go out, anywho...

So I said Johnny whatcha doing tonight?
He looked at me with a face full of fright
And I said, how bout a revolution?
And he said right.
I say oh, you say ah
I say revolution, and you say jah
I say oh, you say ah
I say revolution, and you say jah
I say oh, you say ah
I say revolution, and you say jah
I say oh, you say ah
I say revolution, and you say jah dah dah
Day day oh!

Solo 4 (7:47)

e----------------------------------------------------|
B----------------------------------------------------|
G----------5-7-7-55-7-5-7-7-5-7-7b--8-7-5-7-5--------|
D------5-7------------5-5-5-5-5-5b--5-5-5-5-5-7-5----|
A--5-7----------------------------------------5------|
E----------------------------------------------------|
e-------------------------8-8-8-10-8-88-10-8-8-8-5-5-|
B----------------55b6-5-5-8-8-8-8--8-88-8--8-8-8-5-5-|
G----------5-5h7-------------------------------------|
D------5h7-------------------------------------------|
A--5h7-----------------------------------------------|
E----------------------------------------------------|
e-----------------------------------------8-8-8-8-8-8-8-8-8-8-8-8-8/10p8-5-|
B---------------------------------5-5h8p5/8-8------------------------------|
G--7p5--------5-5-----55--5b-55-7-5-5--------------------------------------|
D------55-5h7---5-5h7-55--5b-55-5------------------------------------------|
A--------------------------------------------------------------------------|
E--------------------------------------------------------------------------|
e-----------------------------------|
B-----------------------------------|
G--7p5-----5-7-5-----5-7-7/8b-7-5-5-|
D------5h7-------5h7----------------|
A-----------------------------------|
E-----------------------------------|
e----------------------------------------------------------------------------|
B-----------------------------------------8b-6-5-5/6/5-----------------------|
G----------5h7-7b-5-----5-5-7b-5-7-7-7-7---------------7-5-4-5-7-5-----5-7b5-|
D------5h7----------7-5--------------------------------------------5-7-------|
A--5h7-----------------------------------------------------------------------|
E----------------------------------------------------------------------------|



Great Band... favourite song of all time

END

+--------------------------------------------------------------------------+

| This file is the author's own work and represents their interpretation |
| of the song. You may only use this file for private study, scholarship, |
| or research. |
+--------------------------------------------------------------------------+


Ultimate-Guitar.Com © 2005

Important: The song above is NOT stored on the Chordie server. The original song is hosted at www.ultimate-guitar.com. Chordie works as a search engine and provides on-the-fly formatting. Chordie does not index songs against artists/composers will. To remove this song please click here.

Text color:
Chord color:
Chord grids: 
Font size:    
Page size: 

Am C F G
variations - click chord images

Login - add to songbook

Transpose chords

Tuning

Rating click stars to rate

Layout
Accuracy

SHARE PAGE  




You need to log in to post comments