Guitar Tabs, Chords and Lyrics


Soulshine  Allman Brothers Band



-------------------------------------------------------------------------------

-------------------------------------------------------------------------------
[Intro Riff One] 
e|-----------------------------------------------------------------------------|
B|----------------------------3-5----------------------------------------------|
G|----2--4b-4b---4b-2---2---4b----4b-4-4b---/4-2---2-2-2--2/4/2-2/4/2-2-------2|
D|-2-4--4-------------4--------------------------4----------------------2/4----|
A|--------------------------------------------------------------------------4--|
E|-----------------------------------------------------------------------------|


[Intro Riff Two] 
Basically same fingering one the 14th fret instead of the 2nd

[Verse] 

[A]When you can't [E]find the light, [D]that got you through the c[A#]loudy days,
[A]When the stars ain't [E]shinin' bright, you f[D]eel like you've lost [A]you're way,
[A]When those candle [E]lights of home, [D]burn so very far [A]away,
[A]Well you got to let your s[E]oul shine, j[F#]ust like my daddy used to [G]say.
[Cborus] 
He used to say s[A]oulshine, it's better than s[E]unshine,
It's better than m[D]oonshine, damn sure better than r[A]ain.
Hey now people d[A]on't mind, we all get this wa[E]y sometime,
Got to let your[F#] soul shine, [G]shine till the break of d[A]ay.
[Verse Two](SAME CHORDS AS FIRST VERSE)
I grew up thinkin' that I had it made, gonna make it on my own.

Life can take the strongest man, make him feel so alone.

Now and then I feel a cold wind, blowin' through my achin' bones,

I think back to what my daddy said, he said "Boy, in the darkness before the
dawn:"

[Cborus] 

[Bridge] 
[F#]Sometimes a man can f[D]eel this emptiness,
Like a [D]woman has robbed him of his very [A]soul.
D Minor D
A woman too, God knows, she can feel like this.
[G]And when your world seems cold, you got to [E]let your spirit take control.

[Solo] 
Consists of intro riffs

[Cborus] 

END

+--------------------------------------------------------------------------+

| This file is the author's own work and represents their interpretation |
| of the song. You may only use this file for private study, scholarship, |
| or research. |
+--------------------------------------------------------------------------+


Ultimate-Guitar.Com © 2005

Important: The song above is NOT stored on the Chordie server. The original song is hosted at www.ultimate-guitar.com. Chordie works as a search engine and provides on-the-fly formatting. Chordie does not index songs against artists'/composers' will. To remove this song please click here.

Text color:
Chord color:
Chord grids: 
Font size:    
Page size: 

A A# D E F# G
variations - click chord images

Login - add to songbook

Transpose chords

Tuning

Rating click stars to rate

Layout
Accuracy

SHARE PAGE  




You need to log in to post comments