Guitar Tabs, Chords and Lyrics


I Wanna Hold You  McFly



|-3-3--3------3-3-3------3-3--3-----------6------8---|

|-3-3--3-6-5--3-3-3-6-5--3-3--3-6-5~------6------8---|
|-------------------------------------6h7----8h9-----|
|----------------------------------------------------|
|----------------------------------------------------|
|----------------------------------------------------|
|-3------3-3-3------3-3--3---------------------------|
|-3-6-5--3-3-3-6-5--3-3--3-6-5-----------------------|
|--------------------------------3-3-3---5-5-5-------|
|--------------------------------3-3-3---5-5-5--5----|
|--------------------------------1-1-1---3-3-3--5----|
|-----------------------------------------------3----|
[G]Tell me that you want me baby [F]
[G]Tell me that it's true [F]
[G]Say the magic words
And I'd des[Bb]troy the wo[C]rld for y[G]ou  [F]
[G]An army for the broken-hearted [F]
[G]March through the streets [F]
[G]And every city's burning
To the gr[Bb]ound un[C]der your fe[G]et
[D]I wanna hold you
[Bm]My skies are turning bl[Em]ack
Feels like a heart a[G]tta[A]ck
And I[G]'d do anything you a[A]sk
I wanna hold you b[D]ad
[G]Melt the polar ice caps baby [F]
[G]Watch them flood the earth [F]
[G]And I'd do anything to show you
[Bb]What your lo[C]ve is wo[G]rth [F]
[G]So why don't you show me your devotion [F]
[G]To heal my aching heart [F]
[G]It's like a neutron bomb explosion
[Bb]Tearing [C]me ap[G]art
[D]I wanna hold you
[Bm]My skies are turning bl[Em]ack
Feels like a heart a[G]tta[A]ck
And I[G]'d do anything you a[A]sk
I wanna hold you b[D]ad
[D]Attention pl[Bm]ease
We interrupt this pro[E]gram
For some disturbing n[A]ews
A worldwide evacu[D]ation
We're going to l[Bm]ose
And they pulverize the na[E]tion
I guess this sh[G]ows [D]us
[C]Just what love could [E]do
Guitar Solo:
|------------------------------------------------------|
|------------------------------------------------------|
|----3-5-5b7===--5b7===5b7=5b7=5b7-5br7--5-5---3~~-----|
|--5---------------------------------------------------|
|------------------------------------------------------|
|------------------------------------------------------|
|---------------------------------------------------|
|---------------------------------------------------|
|-------------------------------------3-3-3-5-5-5---|
|-------------------------3-3-3-5-5-5---------------|
|-------------3-3-3-5-5-5---------------------------|
|-3-3-3-6-6-6---------------------------------------|
|-------------3-3-3--6--6b==6.5---------------------|
|-3-3-3-6-6-6---------------------------------------|
|---------------------------------------------------|
|---------------------------------------------------|
|---------------------------------------------------|
|---------------------------------------------------|
|-13-----13-----13-----13-----13-----13-----13------|
|-13b15--13b15--13b15--13b15--13b15--13b15--13b15---|
|---------------------------------------------------|
|---------------------------------------------------|
|---------------------------------------------------|
|---------------------------------------------------|
|-13-----13-----------------------|
|-13b15--13b15------11--10--11----|
|-------------------12--12--12----|
|---------------------------------|
|---------------------------------|
|---------------------------------|
|----------15-----------------15-----------------15---------|
|-------15----18p15--------15----18p15--------15----18p15---|
|-17b19--------------17b19--------------17b19---------------|
|-----------------------------------------------------------|
|-----------------------------------------------------------|
|-----------------------------------------------------------|
|----------15-------18p15-----------------------------------|
|-------15----18p15-------18p15-18p15-18p15-18p15-----------|
|-17b19-------------------------------------------17p15-----|
|-------------------------------------------------------17-|
|-----------------------------------------------------------|
|-----------------------------------------------------------|


[D]I wanna hold you
[Bm]My skies are turning bl[Em]ack
Feels like a heart a[G]tta[A]ck
And I[G]'d do anything you a[A]sk
I wanna hold you b[D]ad, bad, [Bm]bad [A]
[G]I'd do anything you a[A]sk
I wanna hold you b[D]ad

Ending Riff: (2:42)
|-10-10--------10-10--------10-10--10--------10-10--13-10-|
|-10-10-13-12--10-10-13-12--10-10--10-13-12--10-10--------|
|---------------------------------------------------------|
|---------------------------------------------------------|
|---------------------------------------------------------|
|---------------------------------------------------------|


Chords:
G: 320033 or 355433
F: 133211
A: x02220 or 577655
Bm: x24432
Em: 022000
E: 022100
Bb: 688766 or x1333x
C:   x32010  or  x3555x  or  8-10-10-9-8-8


END

+--------------------------------------------------------------------------+

| This file is the author's own work and represents their interpretation |
| of the song. You may only use this file for private study, scholarship, |
| or research. |
+--------------------------------------------------------------------------+


Ultimate-Guitar.Com © 2005

Important: The song above is NOT stored on the Chordie server. The original song is hosted at www.ultimate-guitar.com. Chordie works as a search engine and provides on-the-fly formatting. Chordie does not index songs against artists/composers will. To remove this song please click here.

Text color:
Chord color:
Chord grids: 
Font size:    
Page size: 

A Bb Bm C D E Em F G
variations - click chord images

Login - add to songbook

Transpose chords

Tuning

Rating click stars to rate

Layout
Accuracy

SHARE PAGE  




You need to log in to post comments