Guitar Tabs, Chords and Lyrics


Is This Love  Bob Marley



e----------------------------------------------|

B---------------2---x--------------------------|
G---------------2---x--------------------------|
D-- 4------2h4-------------2h4-----------------|
A-- 4----4--------------4----------------------|
E---2------------------------------------------|
e---2---------------2-2-2---2-2-2------------|
B---3---------------2-2-3---2-2-2------------|
G-- 2-------2-------2-2-2---2-2-3------------|
D--------4-----------------------------------|
A------5-------------------------------------|
E--------------------------------------------|
e-------------------------------------------|
B-----------2-------------------------------|
G-----------2-------------------------------|
D------2h4----------------------------------|
A---4---------------------------------------|
E-------------------------------------------|
e----------------------------------------------|
B-------------2--x-----------------------------|
G-------------2--x-----------------------------|
D-------2h4---------------2h4------------------|
A---4-----------------4------------------------|
E----------------------------------------------|
-----------------------------------------------------------------------------------
       [A]        [C#m]        [F#m]        [Bm]         [D]        [E]                                            
e---5-----4------2-----2----5----0--------------------|
B---5-----5------2-----3----7----0--------------------|
G---6-----6------2-----4----7----1--------------------|
D---7-----6------4-----4----7----2--------------------|
A---7-----5------4-----2----5----2--------------------|
E---5-----5------2-----2----5----0--------------------|
------------------------------------------------------------------------------------

INTR0- Riff 1, Riff 2, A, C#m, F#m, Riff 3, D, A


VERSE 1-

C#m F#m (Riff 3) D A
I wanna love you and treat you right;

C#m F#m (Riff 4) D A
I wanna love you every day and every night:

C#m F#m (Riff 4) D A
We’ll be together with a roof right over our heads;

C#m F#m (Riff 4) D A
We’ll share the shelter of my single bed;

C#m F#m (Riff 4) D A
We’ll share the same room, yeah! jah provide the bread.


CHORUS-

[C#m]                                                                                            
Is this love - is this love - is this love -is this love


[Bm]that I’m feelin’?
[C#m]                                                                                           
Is this love - is this love - is this love -is this love

[Bm]that I’m feelin’?
C#m Bm, C#m, D, E
I wanna know - wanna know - wanna know now!

[C#m]I got to know - got to know - got to know now!

[C#m]                                               [Bm]                                            
I-i-i-i-i-i-i-i-i - I’m willing and able,

C#m Bm E, D, C#m
So I throw my cards on your table!


VERSE 2-

Bm F#m (Riff 3) D A
I wanna love you - I wanna love and treat - love and treat you right;

C#m F#m (Riff 4) D A
I wanna love you every day and every night:

C#m F#m (Riff 4) D A
We’ll be together, yeah! with a roof right over our heads;

C#m F#m (Riff 4) D A
We’ll share the shelter, yeah oh now! of my single bed;

C#m F#m (Riff 4) D A
We’ll share the same room, yeah! jah provide the bread.


CHORUS (same as last one)

VERSE 3 (same as VERSE 2)- till fadeout

END

+--------------------------------------------------------------------------+

| This file is the author's own work and represents their interpretation |
| of the song. You may only use this file for private study, scholarship, |
| or research. |
+--------------------------------------------------------------------------+


Ultimate-Guitar.Com © 2005

Important: The song above is NOT stored on the Chordie server. The original song is hosted at www.ultimate-guitar.com. Chordie works as a search engine and provides on-the-fly formatting. Chordie does not index songs against artists/composers will. To remove this song please click here.

Text color:
Chord color:
Chord grids: 
Font size:    
Page size: 

A Bm C#m D E F#m
variations - click chord images

Login - add to songbook

Transpose chords

Tuning

Rating click stars to rate

Layout
Accuracy

SHARE PAGE  




You need to log in to post comments