Guitar Tabs, Chords and Lyrics


This Is The Best Of My Love  Eagles



e|--0---------0--------0--------0-------0--------1------0------1-----3------

B|--0---------1--------0--------1-------0--------2------3------1-----0------
G|--0---------0--------0--------2-------0--------3------0------2-----0------
D|--0---------2--------3--------3-------2--------3------2------0-----0------
A|--3---------3--------x--------x-------3--------x------2------x-----2------
E|--x---------x--------x--------x-------x--------x------0------x-----3------
   [G7]       [G6]       [Fm]                    
e|-1------0-------1---------------------------------------------------------
B|-0------0-------1---------------------------------------------------------
G|-0------0-------1---------------------------------------------------------
D|-0------0-------3--------------------------------------------------------|
A|-2------2-------x---------------------------------------------------------
E|-3------3-------x---------------------------------------------------------



Intro: Cm7, C, Cm7, C, Fm7, Fm72, Fm7, Fm72 x2

Verse:

[C]Every night, I'm lyin in bed [Fm72]holdin you close in my dreams
[C]Thinkin about all the things that we said
and [F]comin apart at the seams
[Em7]We tried to talk it [Dm7]over but the [Em7]words come out too [F]rough
C Fm72 C G, G7, G6, G7
I know you were tryin to give me the best of your love

Verse 2:

[C]Beautiful faces and loud empty places [Fm72]look at the way that we live
[C]Wastin our time on cheap talk and wine [F]left us so little to give
That [Em7]same old crowd was like a [Dm7]cold dark cloud
That [Em7]we could never rise [F]above
[C]But here in my heart I [Fm72]give you the best of my [C]love

Chorus:
[G]Whoa [C]sweet darlin you get the best of my lov[F]e, you get the best of my love
[G]Whoa [C]sweet darlin you get the best of my lov[F]e, you get the best of my love

Bridge:
[Fm]Oo, I'm going back in time an its a [Cm72]sweet dream
[Fm]It was a quiet night and I would be alright
if I could [Dm7]go on [G7]sleeping

Verse 3:

[C]But every morning I wake up and worry [Fm72]whats gonna happen today
[C]You see it your way and I see it mine but we [F]both see it slippin away
[Em7]You know we always had each [Dm7]other baby, [Em7]I guess that wasn't enough
C Fm72 C G, G7, G6, G7
Oh, Oh but here in my heart I give you the best of my love

Chorus:
[C]Whoa, sweet darlin [F]you get the best of my [Cm72]love, the best of my love
Sweet Darlin, [F]you get the best of my love, the best of my lov[Cm72]e
Sweet Darlin, every night and day, [F]you get the best of my love

you get the best of my love
[Cm72]Oh, sweet darlin, oh [F]you get the best of my love  x2

I mean you play the entire last chorus x2 but at the end you say
"you get the best of my love" x2 and then strum a C at the end


END

+--------------------------------------------------------------------------+

| This file is the author's own work and represents their interpretation |
| of the song. You may only use this file for private study, scholarship, |
| or research. |
+--------------------------------------------------------------------------+


Ultimate-Guitar.Com © 2005

Important: The song above is NOT stored on the Chordie server. The original song is hosted at www.ultimate-guitar.com. Chordie works as a search engine and provides on-the-fly formatting. Chordie does not index songs against artists'/composers' will. To remove this song please click here.

Text color:
Chord color:
Chord grids: 
Font size:    
Page size: 

C Dm7 Em7 F Fm G G6 G7
variations - click chord images

Login - add to songbook

Transpose chords

Tuning

Rating click stars to rate

Layout
Accuracy

SHARE PAGE  




You need to log in to post comments