Guitar Tabs, Chords and Lyrics


Arthurs Theme Best That You Can Do  Christopher Cross



[F]Once in your life you will f[G]ind her
[C]Someone who turns your h[F]eart around
And n[Bb]ext thing you know
You're cl[E]osing d[A]own the town
[F]Wake up and it's still w[G]ith you
[C]Even though you left her w[F]ay across town
[Bb]Wonderin' to yours[E]elf
Hey, w[A]hat have I found
Chorus:
[D]When you get caught
Between the moon and New York Ci[A]ty
I know it's c[Bm]razy
But it's t[A]rue
[D]If you get caught
Between the moon and New York [E]Cit[F#m]y
[Bm]The best that you can do
[Bm]The best that you can do
Is fall in l[A]ove


Verse 2:
[F]Arthur, he does as he pl[G]eases
[C]All of his life his ma[F]ster's toys
And d[Bb]eep in his heart he's j[E]ust
[A]He's just a boy
[F]Living his life one day at a t[G]ime
He's sho[C]wing himself a pr[F]etty good time
He's la[Bb]ughing about the w[E]ay
They w[A]ant him to be


Chorus:
[D]When you get caught
Between the moon and New York Ci[A]ty
I know it's c[Bm]razy
But it's t[A]rue
[D]If you get caught
Between the moon and New York [E]Cit[F#m]y
[Bm]The best that you can do
[Bm]The best that you can do
Is fall in l[A]ove


Sax Solo Interlude: (2:15) Sax Arranged For Guitar
|-/13-13-13-13--------------------12-12-12-12-----12s=15--13--12-----------|
|---------------------15-12~-------------------13----------------15--13----|
|---------------14-14----------12------------------------------------------|
|--------------------------------------------------------------------------|
|--------------------------------------------------------------------------|
|--------------------------------------------------------------------------|
|-----------------------------------------------------------------------------|
|-15-15-15-15------------------14h15=p14--17--14h15=p14--17-------------------|
|--------------10--9--9s=16---------------------------------------------------|
|-----------------------------------------------------------------------------|
|-----------------------------------------------------------------------------|
|-----------------------------------------------------------------------------|
|----------------------------15--15h17-15---------15-17-18b20~~---17-15--------|
|-6s===-18-18-18-18--18--18----------------18--17-----------------------15s17-|
|------------------------------------------------------------------------------|
|------------------------------------------------------------------------------|
|------------------------------------------------------------------------------|
|------------------------------------------------------------------------------|
|-------------------------------------------------------------------------14-17-17~-|
|-----13-13--15-15-15-15--18--17s=-12---15-15--14-17----------------14-17-----------|
|-/14-------------------------------------------------16b18rp16---------------------|
|---------------------------------------------------------------16------------------|
|-----------------------------------------------------------------------------------|
|-----------------------------------------------------------------------------------|



(Chorus) Repeat

(Fade Out)

Chords:
F: 133211
G: 320033
C: x32010
Bb: x1333x
E: 022100
A: x02220
D: xx0232
Bm: x24432
F#m: 244222

Legend:
s - slide
b - bend
r - release
p - pulloff
h - hammeron

END

+--------------------------------------------------------------------------+

| This file is the author's own work and represents their interpretation |
| of the song. You may only use this file for private study, scholarship, |
| or research. |
+--------------------------------------------------------------------------+


Ultimate-Guitar.Com © 2005

Important: The song above is NOT stored on the Chordie server. The original song is hosted at www.ultimate-guitar.com. Chordie works as a search engine and provides on-the-fly formatting. Chordie does not index songs against artists/composers will. To remove this song please click here.

Text color:
Chord color:
Chord grids: 
Font size:    
Page size: 

A Bb Bm C D E F F#m G
variations - click chord images

Login - add to songbook

Transpose chords

Tuning

Rating click stars to rate

Layout
Accuracy

SHARE PAGE  




You need to log in to post comments