Guitar Tabs, Chords and Lyrics


Homeward Bound  Simon & Garfunkel



-------------------------------------------------------------------------------

-------------------------------------------------------------------------------
    [G-2]D-0
A-0
E-x

e|--0--------0----------------------------------------------------------|
B|--1--------1h3p1-----3----1----------2------------1-------------------|
G|---------------------4----2----------3------------2-------------------|
D|----------------------------------------------------------------------|
A|----------------------------------------------------------------------|
E|----------------------------------------------------------------------|
e|------------------------------------|
B|----1-------------------------------|
G|----0--------------------------0----|
D|------------------------------------|
A|------------------------------------|
E|------------------------------------|

I'm
[C]sitin’ in the railway station, got a
[Em]ticket for my destination[Gm6].
[Dm]on a tour of one night stands my [Bb]suitcase and guitar in hand and [C]every
stop is neatly planned for a poet and a one man [G7]band.     [C]


Chorus:
[C]Homeward [F]Bound, I wish I was, Ho[C]meward [F]Bound.
[C]Home were my thought’s
[Dm]  E[C]sc[Bb]api[F]ng, [C]home where my mus[Dm]ic’[C]s [Bb]pla[F]yi[C]ng,
home where my love [Dm]lie[C]s [Bb]wai[F]ting
[G7]Silently f[C]or me.


[C]Every day’s an endless stream of
[Em]cigarettes and magazine[Gm6]s.
And [Dm]each town looks the same to me, the [Bb]movies and the factories and
[C]Every stranger’s face I see minds me that I long to [G7]be,        [C]
Chorus:
[C]Homeward [F]Bound, I wish I was, Ho[C]meward [F]Bound.
[C]Home were my thought’s
[Dm]  E[C]sc[Bb]api[F]ng, [C]home where my mus[Dm]ic’[C]s [Bb]pla[F]yi[C]ng,
home where my love [Dm]lie[C]s [Bb]wai[F]ting
[G7]Silently f[C]or me.


[C]Tonight I’ll sing my songs again,
[Em]I’ll play the game and pretend[Gm6].
But [Dm]all my words come back too me in [Bb]shades of mediocrity like [C]emptiness
In harmony I need someone to comfort [G7]me       [C]
Chorus:
[C]Homeward [F]Bound, I wish I was, Ho[C]meward [F]Bound.
[C]Home were my thought’s
[Dm]  E[C]sc[Bb]api[F]ng, [C]home where my mus[Dm]ic’[C]s [Bb]pla[F]yi[C]ng,
home where my love [Dm]lie[C]s [Bb]wai[F]ting
[G7]Silently f[C]or me.
[C]    [Cmaj7]    Silently [C7]for me.   [C]     [F]     [C]


| / slide up
| slide down
| h hammer-on
| p pull-off
| ~ vibrato
| + harmonic
| x Mute note
===================================================================

END

+--------------------------------------------------------------------------+

| This file is the author's own work and represents their interpretation |
| of the song. You may only use this file for private study, scholarship, |
| or research. |
+--------------------------------------------------------------------------+


Ultimate-Guitar.Com © 2005


Important: The song above is NOT stored on the Chordie server. The original song is hosted at www.ultimate-guitar.com. Chordie works as a search engine and provides on-the-fly formatting. Chordie does not index songs against artists/composers will. To remove this song please click here.

Text color:
Chord color:
Chord grids: 
Font size:    
Page size: 

Bb C C7 Cmaj7 Dm Em F G-2 G7 Gm6
variations - click chord images

Login - add to songbook

Transpose chords

Tuning

Rating click stars to rate

Layout
Accuracy

SHARE PAGE  




You need to log in to post comments