Guitar Tabs, Chords and Lyrics


Hotel Yorba  White Stripes



   [G]                                                                             
 |----------3---------------------------------------3----3--0--0-|
 |----------3----------------3----------------------3--0-3--0--0-|
 |----0--0--0-----0----------0--------------0-------0--0-0--0--0-|
 |----0--------0--0------0-------------0----0-------0--0---------|
 |-------------2-----0h2-----------0h2----0h2----2--2------------|
 |-3---------------------------3-----------------3--3------------|

Verse
   [G]                                [C]                                             
 |-3---3-----3---3---3--3--3-----|-0--0------0--0------------------|-
 |-3---3-----3---3---3--3--3--0--|-1--1------1--1---1---1--1-0--0--|-
 |-0---0-----0---0---0--0--0--0--|-0--0---0--0--0---0---0--0-0--0--|-
 |-0---0-----0---0---0--0--0--0--|-2--2---2-----2---2---2--2-0--0--|-
 |-2---2-----2---2---------2--0--|-3--3---3-----3---3---3--3-0--0--|-
 |-3---3-----3---3---------------|---------------------------------|-


   [D]                                 [G]                                            
  -3---3------2--2-------2--2-2-0-|----3------3--3------3--3--3-|
  -2---2------3--3---2---3--3-3-0-|----3------3--3------0--3--3-|
  -3---3---2-----2---3---2--2-2-0-|-0--0---0--0--0---0--0--0--0-|
  -0---0---0-----0---0---0--0-0-0-|-0--0---0-----0---0-----0--0-|
  -0-------0---------0------------|-2--2---2-----2---2-----2----|
  --------------------------------|-3--3---3-----3---3-----3----|


Verse 1
  I was [G]watching with one e[C]ye on the other side

  I had fif[D]teen people telling me to move
  I got mo[G]vin' on my mind

  I found s[G]helter in some thou[C]ghts turning wheels around
  I said thirty-[D]nine times that 'I love you'
  To the beau[G]ty I had found      Well It's
Chorus
  [G]One two three four take the elevator at the

  H[C]otel Yorba I'll be glad to see you later

  [D]All they got inside is vaca[G]nc[F5]y  [G]
Jack played this after the first verse once, live.
    [G]                           [C]                                                 
  |-3---3----3---3---3-3-----|-0-r-0-r-0-----------------|-
  |-3---3----3---3---3-3-----|-1-r-2-r-1----1------------|-
  |-0---0----0---0---0-0-0-0-|-0-r-0-r-0--0-0------------|-
  |-0---0----0---0---0-0-0-0-|-2-r-2-r-2--2-2------------|-
  |-2---2----2---3-------2-2-|-3-r-3-r-3--3-30h3--2--1--0|-
  |-3---3----3---2-------3-3-|---------------------------|-

   [D]        [Ds4]    [D]     [Ds4]      [D]    [G]      [F5]      [G]                                      
  --3--3--3h4-4-3--3--4--4-2-|-3--3--------3---3--3--------|
  --2--2--2---2-2--2--2--2-3-|-3--3--------3---3--3---3--3-|
  --3--3--3---3-3--3--3--3-2-|-0--0--------0---0--0---0--0-|
  --0--0--0-----0--0---------|-0--0--3--3--0---0--0---0--0-|
  ---------------------------|-2--2--3--3--2----------2--2-|
  ---------------------------|-3--3--1--1--3---------------|

Verse 2
  I've been [G]thinking of a little p[C]lace down by the lake

  They've got a di[D]rty old road leading up to the house

  I wonder h[G]ow long it will take
  'Till we're a[G]lone sittin' on the front p[C]orch of that home
  Stom[D]ping our feet on the wooden boards
  Ne[G]ver gonna worry about locking the door    Well it's
Chorus
  [G]One two three four take the elevator at the

  [C]Hotal Yorba I'll be glad to see you later
  [D]All they got inside is vacanc[G]y [F5]   [G]

Interlude (single strums)
   [G]               [C]                  [D] [G]  It might sound [G]silly for me to think [C]childish thought like these

  But I[D]'m so tired of acting tough, and I'm [G]gonna do what I please

Verse 3
  Let's get [G]married in a big cath[C]edral by a priest

  'Cos if I[D]'m the man that you love the most
  You could [G]say 'I do' at least      Well it's

Chorus
  [G]One two three four take the elevator at the


  H[C]otel Yorba I'll be glad to see you later
  [D]All they got inside is [G]vacancy         And it's
  [G]Four five six seven grab you umbrella
  [C]Grab hold of me 'cos I'm your favourite fella
  [D]All they got inside is vacanc[G]y [C]  [G]  [D]  [G]
Any comments can go to Natfish011@aol.com

END

+--------------------------------------------------------------------------+

| This file is the author's own work and represents their interpretation |
| of the song. You may only use this file for private study, scholarship, |
| or research. |
+--------------------------------------------------------------------------+


Ultimate-Guitar.Com © 2005

Important: The song above is NOT stored on the Chordie server. The original song is hosted at www.ultimate-guitar.com. Chordie works as a search engine and provides on-the-fly formatting. Chordie does not index songs against artists/composers will. To remove this song please click here.

Text color:
Chord color:
Chord grids: 
Font size:    
Page size: 

C D F5 G
variations - click chord images

Login - add to songbook

Transpose chords

Tuning

Rating click stars to rate

Layout
Accuracy

SHARE PAGE  




You need to log in to post comments