Guitar Tabs, Chords and Lyrics


Disenchanted   My Chemical Romance


+ --------------------------------------------------------------------- +
| Ultimate Guitar Tabs Archive - your #1 source for tabs!               |
| http://www.ultimate-guitar.com/                                       |
|                                                                       |
| Over 200,000 guitar, guitar pro and bass tabs! Also lessons, news,    |
| columns and guitar forums!                                            |
+ --------------------------------------------------------------------- +

Artist: My Chemical Romance
Song: Disenchanted


SONG:  Disenchanted
ARTIST:  My Chemical Romance
ALBUM:  The Black Parade

First off, I just want to say, this song is amazing.  This album is amazing, and My 
Romance is amazing.  I love MCR.


********UPDATED 12-31-06*********


Guitar 1 - Acoustic - Ray Toro
Guitar 2 - Electric - Frank Iero

Intro
	Guitar 1
e|----------------------------------------------------|
B|---3-----3-----3------------------------------------|
G|------2-----2-----2--0-----0-----0-----0--2--0------|
D|---0--------------------4-----4-----4-----------4---|
A|---------------------------5------------------------|
E|----------------------------------------------------|

e|----------------------------------------------------|
B|---3-----3-----3------------------------------------|
G|------2-----2-----2--0-----0-----0-----0--2--0------|
D|------------------------4-----4-----4-----------4---|
A|---2-----------------------2------------------------|
E|----------------------------------------------------|

e|----------------------------------------------------|
B|---3-----3-----3------------------------------------|
G|------2-----2-----2--0-----0-----0-----0--2--0------|
D|------------------------4-----4-----4-----------4---|
A|----------------------------------------------------|
E|---3-----------------------3------------------------|

e|----------------------------------------------------|
B|---3-----3-----3------------------------------------|
G|------2-----2-----2--0-----0-----0-----0--2--0------|
D|------------------------4-----4-----4-----------4---|
A|---0-----------------------0------------------------|
E|----------------------------------------------------|

Verse pt 1
	Guitar 1
e|----------------------------------------------------|
B|---3-----3-----3------------------------------------|
G|------2-----2-----2--0-----0-----0-----0--2--0------|
D|---0--------------------4-----4-----4-----------4---|
A|---------------------------5------------------------|
E|----------------------------------------------------|

e|----------------------------------------------------|
B|---3-----3-----3------------------------------------|
G|------2-----2-----2--0-----0-----0-----0--2--0------|
D|------------------------4-----4-----4-----------4---|
A|---2-----------------------2------------------------|
E|----------------------------------------------------|





e|----------------------------------------------------|
B|---3-----3-----3------------------------------------|
G|------2-----2-----2--0-----0-----0-----0--2--0------|
D|------------------------4-----4-----4-----------4---|
A|----------------------------------------------------|
E|---3-----------------------3------------------------|

e|----------------------------------------------------|
B|---3-----3-----3------------------------------------|
G|------2-----2-----2--0-----0-----0-----0------------|
D|------------------------4-----4-----4-----4--2--0---|
A|---0-----------------------0------------------------|
E|----------------------------------------------------|

Verse pt 2
	Guitar 1
e|-------------------------------------------|
B|-------------------------------------------|
G|---7---------4-----------------------------|
D|---7-(x16)---4-(x16)---5---------7---------|
A|---5---------2---------5-(x16)---7-(x16)---|
E|-----------------------3---------5---------|

	Guitar 2
e|---------------------------------------------|
B|---------------------------------------------|
G|---7~--------4~------------------------------|
D|---7~--------4~--------5~--------7~----------|
A|---5~--------2~--------5~--------7~----------|
E|-----------------------3~--------5~--5~--6~--|

Pre-Chorus
	Guitar 1
e|----------------------------------------------------------|
B|----------------------------------------------------------|
G|---4-----------------------------7--7-----7--7--7-----7---|
D|---4-(x8)----2---------7---------7--7-----7--7--7-----7---|
A|---2---------2-(x8)----7-(x8)----5--5-----5--4--4-----4---|
E|-------------0---------5----------------------------------|

e|---------------------------------|
B|---------------------------------|
G|---4-----------------------------|
D|---4-(x8)----5---------7---------|
A|---2---------5-(x8)----7-(x16)---|
E|-------------3---------5---------|

	Guitar 2
e|----------------------------------------------------------|
B|----------------------------------------------------------|
G|---4~----------------------------7--7-----7--7--7-----7---|
D|---4~--------2~--------7~--------7--7-----7--7--7-----7---|
A|---2~--------2~--------7~--------5--5-----5--4--4-----4---|
E|-------------0~--------5~---------------------------------|

e|-------------------------------------------------------------|
B|-------------------------------------------------------------|
G|---4~--------------------------------------------------------|
D|---4~--------5~--------7-7--7-9-9--9-11-11--11-12-12-14-14---|
A|---2~--------5~--------x-x--x-x-x--x-x--x---x--x--x--x--x----|
E|-------------3~--------5-5--5-7-7--7-9--9---9--10-10-12-12---|

Chorus
	Guitar 1
e|-------------------------------------------|
B|-------------------------------------------|
G|---7---------4-----------------------------|
D|---7-(x16)---4-(x16)---2---------7---------|
A|---5---------2---------2-(x16)---7-(x16)---|
E|-----------------------0---------5---------|

	Guitar 2




e|----------------------------------------------------------|
B|----------------------------------------------------------|
G|---12-12-12--11---11-11-11-----12-12--14--11---11-11-11---|
D|---x--x--x---x----x--x--x------x--x---x---x----x--x--x----|
A|---10-10-10--9----9--9--9------10-10--12--9----9--9--9----|
E|----------------------------------------------------------|

e|---------------------------------------------------|
B|---------------------------------------------------|
G|---12-12-12--11---11-11-11-----12-12-12--11--9-7---|
D|---x--x--x---x----x--x--x------x--x--x---x---x-x---|
A|---10-10-10--9----9--9--9------10-10-10--9---7-5---|
E|---------------------------------------------------|

e|-----------------------|
B|-----------------------|
G|-----------------------|
D|---2---------7---------|
A|---2-(x16)---7-(x16)---|
E|---0---------5---------|

Verse 2
	Guitar 1
e|-------------------------------------------|
B|-------------------------------------------|
G|---7---------4-----------------------------|
D|---7-(x16)---4-(x16)---5---------7---------|
A|---5---------2---------5-(x16)---7-(x16)---|
E|-----------------------3---------5---------|

	Guitar 2
e|----------------------------------------------------|
B|----7*~---------------------------------------------|
G|------7*~-----7*~----------------------7------------|
D|--------7*~-----7*~----5~------------7---7----------|
A|------------------7*~--5~----------7----------------|
E|-----------------------3~--------5----------5~--6~--|

Pre-Chorus
	Guitar 1
e|----------------------------------------------------------|
B|----------------------------------------------------------|
G|---4-----------------------------7--7-----7--7--7-----7---|
D|---4-(x8)----2---------7---------7--7-----7--7--7-----7---|
A|---2---------2-(x8)----7-(x8)----5--5-----5--4--4-----4---|
E|-------------0---------5----------------------------------|

e|---------------------------------|
B|---------------------------------|
G|---4-----------------------------|
D|---4-(x8)----5---------7---------|
A|---2---------5-(x8)----7-(x16)---|
E|-------------3---------5---------|

	Guitar 2
e|----------------------------------------------------------|
B|----------------------------------------------------------|
G|---4~----------------------------7--7-----7--7--7-----7---|
D|---4~--------2~--------7~--------7--7-----7--7--7-----7---|
A|---2~--------2~--------7~--------5--5-----5--4--4-----4---|
E|-------------0~--------5~---------------------------------|

e|-------------------------------------------------------------|
B|-------------------------------------------------------------|
G|---4~--------------------------------------------------------|
D|---4~--------5~--------7-7--7-9-9--9-11-11--11-12-12-14-14---|
A|---2~--------5~--------x-x--x-x-x--x-x--x---x--x--x--x--x----|
E|-------------3~--------5-5--5-7-7--7-9--9---9--10-10-12-12---|

Chorus
	Guitar 1





e|-------------------------------------------|
B|-------------------------------------------|
G|---7---------4-----------------------------|
D|---7-(x16)---4-(x16)---2---------7---------|
A|---5---------2---------2-(x16)---7-(x16)---|
E|-----------------------0---------5---------|

	Guitar 2
e|----------------------------------------------------------|
B|----------------------------------------------------------|
G|---12-12-12--11---11-11-11-----12-12--14--11---11-11-11---|
D|---x--x--x---x----x--x--x------x--x---x---x----x--x--x----|
A|---10-10-10--9----9--9--9------10-10--12--9----9--9--9----|
E|----------------------------------------------------------|

e|---------------------------------------------------|
B|---------------------------------------------------|
G|---12-12-12--11---11-11-11-----12-12-12--11--9-7---|
D|---x--x--x---x----x--x--x------x--x--x---x---x-x---|
A|---10-10-10--9----9--9--9------10-10-10--9---7-5---|
E|---------------------------------------------------|

e|-----------------------|
B|-----------------------|
G|-----------------------|
D|---2---------7---------|
A|---2-(x16)---7-(x16)---|
E|---0---------5---------|

Bridge pt 1
	Guitar 1
e|-----------------------------------------------------|
B|-----------------------------------------------------|
G|---7~-------------------------7~---------------------|
D|---7~----------------8~-------7~----------------8~---|
A|---5~----------------8~-------5~----------------8~---|
E|---------------------6~-------------------------6~---|

	Guitar 2
e|-----------------------------------------------------|
B|-----------------------------------------------------|
G|-----------------------------------------------------|
D|---0-----0--0--2--4-----------0-----0--0--2--4-------|
A|------0--------------1-----------0--------------1----|
E|-----------------------------------------------------|

Bridge pt 2
	Guitar 1
e|----------------------------------------------------|
B|----------------------------------------------------|
G|---7--7-----7--7--7-----7--4--4-----4--2--2-----2---|
D|---7--7-----7--7--7-----7--4--4-----4--2--2-----2---|
A|---5--5-----5--4--4-----4--2--2-----2--0--0-----0---|
E|----------------------------------------------------|

e|--------------------------------------|
B|--------------------------------------|
G|--------------------------------------|
D|---5-5-5-5-5-5-5-5--7-7-7-7-7-7-7-7---|
A|---5-5-5-5-5-5-5-5--7-7-7-7-7-7-7-7---|
E|---3-3-3-3-3-3-3-3--5-5-5-5-5-5-5-5---|

	Guitar 2
e|--22-22------19p17t15-17p15t14-19p17t15-17p15t14-17p15t14-14-12p10p9--|
B|---------19-----------------------------------------------------------|
G|----------------------------------------------------------------------|
D|----------------------------------------------------------------------|
A|----------------------------------------------------------------------|
E|----------------------------------------------------------------------|

e|----------------|-----------10~~--|
B|--12p10t8-10p7--|-------7-8-------|
G|----------------|--7~~------------|
D|----------------|-----------------|
A|----------------|-----------------|
E|----------------|-----------------|

Bridge pt 3
	Guitar 1
e|-------------------------------------------|
B|-------------------------------------------|
G|---7---------4-----------------------------|
D|---7-(x16)---4-(x16)---5---------7---------|
A|---5---------2---------5-(x16)---7-(x16)---|
E|-----------------------3---------5---------|

	Guitar 2
e|----------------------------------------------------|
B|---3-----3-----3------------------------------------|
G|------2-----2-----2--0-----0-----0-----0--2--0------| x3
D|------------------------4-----4-----4-----------4---|
A|----------------------------------------------------|
E|----------------------------------------------------|

e|----------------------------------------------------|
B|---3-----3-----3------------------------------------|
G|------2-----2-----2--0-----0-----0-----0------------|
D|------------------------4-----4-----4-----4--2--0---|
A|----------------------------------------------------|
E|----------------------------------------------------|

Chorus
	Guitar 1
e|-------------------------------------------|
B|-------------------------------------------|
G|---7---------4-----------------------------|
D|---7-(x16)---4-(x16)---2---------7---------|
A|---5---------2---------2-(x16)---7-(x16)---|
E|-----------------------0---------5---------|

e|-------------------------------------------------------------|
B|-------------------------------------------------------------|
G|---7---------4-----------------------------------------------|
D|---7-(x16)---4-(x16)--2-2--2-2-2--2-2-2--2-2-2--2--7---------|
A|---5---------2--------2-2--2-2-2--2-2-2--2-2-2--2--7-(x16)---|
E|----------------------0-0--0-0-0--0-0-0--0-0-0--0--5---------|

	Guitar 2
e|----------------------------------------------------------|
B|----------------------------------------------------------|
G|---12-12-12--11---11-11-11-----12-12--14--11---11-11-11---|
D|---x--x--x---x----x--x--x------x--x---x---x----x--x--x----|
A|---10-10-10--9----9--9--9------10-10--12--9----9--9--9----|
E|----------------------------------------------------------|

e|---------------------------------------------------|
B|---------------------------------------------------|
G|---12-12-12--11---11-11-11-----12-12-12--11--9-7---|
D|---x--x--x---x----x--x--x------x--x--x---x---x-x---|
A|---10-10-10--9----9--9--9------10-10-10--9---7-5---|
E|---------------------------------------------------|

e|-----------------------|
B|-----------------------|
G|-----------------------|
D|---2---------7---------|
A|---2-(x16)---7-(x16)---|
E|---0---------5---------|

e|----------------------------------------------------------|
B|----------------------------------------------------------|
G|---12-12-12--11---11-11-11-----12-12--14--11---11-11-11---|
D|---x--x--x---x----x--x--x------x--x---x---x----x--x--x----|
A|---10-10-10--9----9--9--9------10-10--12--9----9--9--9----|
E|----------------------------------------------------------|

e|---------------------------------------------------|
B|---------------------------------------------------|
G|---12-12-12--11---11-11-11-----12-12-12--11--9-7---|
D|---x--x--x---x----x--x--x------x--x--x---x---x-x---|
A|---10-10-10--9----9--9--9------10-10-10--9---7-5---|
E|---------------------------------------------------|

e|------------------------------------------|
B|------------------------------------------|
G|------------------------------------------|
D|---2-2--2-2-2--2-2-2--2-2-2--2--7---------|
A|---2-2--2-2-2--2-2-2--2-2-2--2--7-(x16)---|
E|---0-0--0-0-0--0-0-0--0-0-0--0--5---------|

Ending
	Guitar 1
e|----------------------------------------------------|
B|---3-----3-----3------------------------------------|
G|------2-----2-----2--0-----0-----0-----0--2--0------|
D|---0--------------------4-----4-----4-----------4---|
A|---------------------------5------------------------|
E|----------------------------------------------------|

e|----------------------------------------------------|
B|---3-----3-----3------------------------------------|
G|------2-----2-----2--0-----0-----0-----0--2--0------|
D|------------------------4-----4-----4-----------4---|
A|---2-----------------------2------------------------|
E|----------------------------------------------------|

e|----------------------------------------------------|
B|---3-----3-----3------------------------------------|
G|------2-----2-----2--0-----0-----0-----0--2--0------|
D|------------------------4-----4-----4-----------4---|
A|----------------------------------------------------|
E|---3-----------------------3------------------------|

e|----------------------------------------------------|--2--|
B|---3-----3-----3------------------------------------|--3--|
G|------2-----2-----2--0-----0-----0-----0------------|--2--|
D|------------------------4-----4-----4-----4--2--0---|--0--|
A|---0-----------------------0------------------------|-----|
E|----------------------------------------------------|-----|


if you have any corrections please email me at cubs2230@verizon.net or IM me at 
BEFORE you rate it, so i have a chance to correct it.
and please specify which tab you're talking about.

thanks. enjoy!

END

+--------------------------------------------------------------------------+
| This file is the author's own work and represents their interpretation   |
| of the song. You may only use this file for private study, scholarship,  |
| or research.                                                             |
+--------------------------------------------------------------------------+

Ultimate-Guitar.Com © 2005

Important: The song above is NOT stored on the Chordie server. The original song is hosted at www.ultimate-guitar.com. Chordie works as a search engine and provides on-the-fly formatting. Chordie does not index songs against artists/composers will. To remove this song please click here.

This song is displayed as text-only. Transposing and tuning is only available for chordpro-songs.

Login - add to songbook

Rating click stars to rate

Layout
Accuracy

SHARE PAGE  




You need to log in to post comments