Guitar Tabs, Chords and Lyrics


Summer Nights  Grease



       G-----------------------------------------------------------------------------|

D------5--5-7--7-5-7--5------5--5-7--7-5-7--5---------------------------------|
A-5--5------------------5--5--------------------------------------------------|
E-----------------------------------------------------------------------------|
[D]Summer [G]lovin' [A]had me a [G-A-G]blast
[D]Summer [G]lovin', [A]happened so [G-A-G]fast
[D]I met a [G]girl [A]crazy for [B]me
[E]Met a [A]boy, [E]cute as can [A]be
[D]Summer [G]days [A]driftin' a[Bm]way, to uh-[G]oh those [A]summer [D]nights
[D]oh-ela-ela-ela-ooh]
[D]Tell me [G]more, tell me more, did you [A]get very [D]far?
[D]Tell me [G]more, tell me more, like, does [A]he have a [D]car?
[D]        [G]            [A]            [G-A-G]                                                                        
[aha--tu-dub-aha--tu-dub-aha--tu-dub-tu-dub-dub]

[D]She swam [G]by me, [A]she got a [G-A-G]cramp
[D]He ran [G]by me, [A]got my suit [G-A-G]damp
[D]I saved her l[G]ife, [A]she nearly [B]drowned
[E]He showed [A]off, [E]splashing a[A]round
[D]Summer [G]sun, [A]something's b[Bm]egun, but uh-[G]oh those [A]summer [D]nights
[D]oh-ela-ela-ela-ooh]
[D]Tell me [G]more, tell me more, was it [A]love at first [D]sight?
[D]Tell me [G]more, tell me more, did she [A]put up a [D]fight?
[D]            [G]            [A]            [G-A-G]                                                                    
[dub--tu-bee-dub--tu-bee-dub--tu-bee-du-bee-du-bee-]

[D]            [G]            [A]            [G-A-G]                                                                    
[dub--tu-bee-dub--tu-bee-dub--tu-bee-du-bee-du-bee-dub]

[D]Took her [G]bowlin' [A]in the Ar[G-A-G]cade
[D]We went [G]strollin', [A]drank lemo[G-A-G]nade
[D]We made [G]out [A]under the [B]dock
[E]We stayed [A]up `[E]til ten o'[A]clock
[D]Summer [G]fling [A]don't mean a [Bm]thing, but uh-[G]oh those [A]summer [D]nights
[D#]oh-ela-ela-ela-ooh]
[D#]Tell me [G#]more, tell me more, but you [A#]don't gotta [D#]brag
[D#]Tell me [G#]more, tell me more, cause he [A#]sounds like a [D#]drag
      [D#]       [G#]            [A#]            [G#-A#-G#]                                                                    
[shoo-ba-pa--shoo-ba-pa--shoo-ba-pa--shoo-ba-pa]

      [D#]       [G#]            [A#]            [G#-A#-G#]                                                                    
[shoo-ba-pa--shoo-ba-pa--shoo-ba-pa--shoo-ba-pa]

[D#]He got [G#]friendly, [A#]holdin' my [G#-A#-G#]hand
[D#]Well she got [G#]friendly, [A#]down in the [G#-A#-G#]sand
[D#]He was [G#]sweet, [A#]just turned eigh[C]teen
[F]Well she was [A#]good, you [F]know what I [A#]mean
[D#]Summer [G#]heat, [A#]boy and girl [Cm]meet,
but uh-[G#]oh those [A#]summer [D#]nights
[E]oh-ela-ela-ela-ooh]
[E]Tell me [A]more, tell me more, how much [B]dough did he [E]spend?
[E]Tell me [A]more, tell me more, could she [B]get me a [E]friend?
G--------------------------------------------------|
D-----------5----5---7------7--------5--7---5------|
A-5-----5------------------------------------------|
E--------------------------------------------------|

It turned colder, that's where it ends
So I told her we'd still be friends

G--------------------------------------------------|
D-----------5---5--7-------7----9------------------|
A-5-----5------------------------------------------|
E--------------------------------------------------|


Then we made our true love vow

G--------------------------------------------------|
D--------7----------------7------------------------|
A-7-----------7------------------------------------|
E--------------------------------------------------|

Wonder what she's doin' now

G---------------------------------------------------------------|
D--------9------7-------------4--------------5-----7------------|
A-5-------------------------------------------------------------|
E---------------------------------------------------------------|

Summer dreams ripped at the seams, but oh, those summer nights

Tell me [G]more, tell me [D]more.

INTRO:

G-----------------------------------------------------------------------|
D------5--5-7--7-5-7--5-------5--5-7--7-5-7--5--------------------------|
A-5--5-------------------5--5-------------------------------------------|
E-----------------------------------------------------------------------|


VERSE+CHORUS+FILL:

G-----------------------------------------------------------------------|
D------4-------5--2----7---7---7---5---5/7----5-------------------------|
A-5--------5------------------------------------------------------------|
E-----------------------------------------------------------------------|

Summer lovin' had me a blaaast
Summer lovin' happened so faaaast

G-----------------------------------------------------------------------|
D-----4------5----7--4--7---7/9----4--4-------5----4-------4---4/5---4--|
A-5------5--------------------------------5-------------5---------------|
E-----------------------------------------------------------------------|

I met a girl crazy for me Met a girl cute as can be


G------------------------------------------------------------------------|
D-12--7---7/9---7--9-----7-4----(4)--9--7--5-----2--9---7--9-7-----------|
A---------------------------------------------------------------5--------|
E------------------------------------------------------------------------|
  Sum-mer days  driftin' a-way   to  u--h--o-----------------------------|h  th-ose summer  nights
G-----------------------------------------------------------------------|
D-----------------------------------------------------------------------|
A--------------2-4--4/5-------------------------------------------------|
E-5--5-5--5-5-----------------------------------------------------------|

oh E-la E-la E-la hop

G-----------------------------------------------------------------------|
D-7----7---7/9---9----9---9-----9---9---7---9-7--4----------------------|
A-----------------------------------------------------------------------|
E-----------------------------------------------------------------------|

Tell me more, tell me more, did you get very far

G-----------------------------------------------------------------------|
D-7----7---7/9---9----9---9-----9----9----7--9----7-7/12----------------|
A-----------------------------------------------------------------------|
E-----------------------------------------------------------------------|

Tell me more, tell me more, like does he have a car

G------------------------------------------------------------------------|
D-4--4----------5--5---5--5/7--7--7---7--5--7--5-------------------------|
A-------5---5-------------------------------------5----------------------|
E------------------------------------------------------------------------|
-------------------------------------------------------------------------|  A-h-a tu  

a-h-a  tu dub  a-h-a  tu du-beee  [Sung twice except in]
 (A-h-a tu  dub a-h-a  tu dub  a-h-a  tu du-beee) [the 1st verse---------|       ]


END

+--------------------------------------------------------------------------+

| This file is the author's own work and represents their interpretation |
| of the song. You may only use this file for private study, scholarship, |
| or research. |
+--------------------------------------------------------------------------+


Ultimate-Guitar.Com © 2005

Important: The song above is NOT stored on the Chordie server. The original song is hosted at www.ultimate-guitar.com. Chordie works as a search engine and provides on-the-fly formatting. Chordie does not index songs against artists/composers will. To remove this song please click here.

Text color:
Chord color:
Chord grids: 
Font size:    
Page size: 

A A# B Bm C Cm D D# E F G G#
variations - click chord images

Login - add to songbook

Transpose chords

Tuning

Rating click stars to rate

Layout
Accuracy

SHARE PAGE  




You need to log in to post comments