Guitar Tabs, Chords and Lyrics


Golden  My Morning Jacket



e-------------------------------------------------------|

B--0--0--2--2--2--2--4--4--4--4--5--5--5--5--7--7----7--|
G---1--1--1--1--2--2--2--2--4--4--4--4--6--6--6--6--6---|
E----------------------------------------------5---5----|
B----0------0------0------0-----0-----0------0----------|
E-------------------------------------------------------|
     [F]          [Fsus4]           [F(2]          [F6sus4]           [Fmaj7]            [Bb]            [C]         
e|---0------|----0-----|----0-----|----0-----|---0------|---5------|----7-----|
B|---0------|----0-----|----0-----|----5-----|---7------|---5------|----7-----|
G|---1------|----2-----|----4-----|----6-----|---8------|---6------|----8-----|
E|---0------|----2-----|----4-----|----7-----|---9------|---5------|----7-----|
B|---0------|----0-----|----0-----|----0-----|---0------|---5------|----7-----|
E|---0------|----0-----|----0-----|----0-----|---0------|---5------|----7-----|

    [Gm/F]                                                                            
e|---9-----|
B|---9-----|
G|---9-----|
E|---9-----|
B|---9-----|
E|---0-----|

Verse
Wa[F]tchin' a stretch of road, Miles of light [Fsus2]explode.
D[F]ri[2]ftin' off a thing, I'd neve[F6sus4]r done before

Watchin' a crowd roll in. Out go the lights it begins.
A feelin' in my bones I never felt before...

Pre-Verse
[Fmaj7]mmm...    [F6sus4]
[Fmaj7]          [F6sus4]                           
Chorus

[Bb]People always told me.[C]
[F]That bars are dark and lo[Gm/F]nely
A[Bb]nd talk is often cheap a[C]nd filled with air.             [F]
[Bb]Sure sometimes they thrill me  [C]
[F]But nothin' could ever chill me.   [Gm/F]
[Bb]Like the way they make the [C]time just disappear         [F]

Break


e-------------------------------------------------------|
B--0--0--2--2--2--2--4--4--4--4--5--5--5--5--7--7----7--|
G---1--1--1--1--2--2--2--2--4--4--4--4--6--6--6--6--6---|
E----------------------------------------------5---5----|
B----0------0------0------0-----0-----0------0----------|
E-------------------------------------------------------|


Verse
[F]Feelin' you are here again. Hot on my skin[Fsus4] again.
F[F]ee[2]lin g[F6sus2]ood a thing I'd never known before

What does it mean to feel? Millions of dreams come real
A feelin' in my soul I'd never felt before...

Pre-Verse
[Fmaj7]mmm...  [F6sus2]
[Fmaj7]       [F6sus2]                             
[Bb]And you always told me.[C]
[F]No matter how long it hol[Gm/F]ds me
[Bb]If it falls apart or makes[F] us millonaires[C].
[Bb]You'll be right here forever.[C]
[F]We'll go thru this thing toge[Gm/F]ther
A[Bb]nd on heaven's golden sho[C]re we'll lay our heads    [F]

Outro
[Fmaj7]            [F6sus2]                        
END

+--------------------------------------------------------------------------+

| This file is the author's own work and represents their interpretation |
| of the song. You may only use this file for private study, scholarship, |
| or research. |
+--------------------------------------------------------------------------+


Ultimate-Guitar.Com © 2005

Important: The song above is NOT stored on the Chordie server. The original song is hosted at www.ultimate-guitar.com. Chordie works as a search engine and provides on-the-fly formatting. Chordie does not index songs against artists/composers will. To remove this song please click here.

Text color:
Chord color:
Chord grids: 
Font size:    
Page size: 

Bb C F F6sus2 F6sus4 Fmaj7 Fsus2 Fsus4 Gm/F
variations - click chord images

Login - add to songbook

Transpose chords

Tuning

Rating click stars to rate

Layout
Accuracy

SHARE PAGE  




You need to log in to post comments