Guitar Tabs, Chords and Lyrics


Rebel Yell  Billy Idol



E||---10--10--10--10--10--10--10--10---||--10--9--10--7--10--9--10--7--|

B||---12--12--12--12--12--12--12--12---||------------------------------|
G||*----------------------------------*||------------------------------|
D||*--------------------------7---9---*||--5---------------------------|
A||---------------9--------------------||--5---------------------------|
E||---7--------------------------------||--3---------------------------|
--10--9--10--7--10--9--10--7--|--10--9--10--7--10--9--10--7--|
------------------------------|------------------------------|
------------------------------|------------------------------|
--4---------------------------|--2h--------------------------|
--4---------------------------|--2---------------------------|
--2---------------------------|--0---------------------------|
--10--9--10--7--10--9--10--7--|--10--9--10--7--10--9--10--7--|
------------------------------|------------------------------|
------------------------------|------------------------------|
--2h--------------------------|--5---------------------------|
--2---------------------------|--5---------------------------|
--0---------------------------|--3---------------------------|
--10--9--10--7--10--9--10--7--|--10--9--10--7--10--9--10--7--|
------------------------------|------------------------------|
------------------------------|------------------------------|
--4---------------------------|--2h--------------------------|
--4---------------------------|--2---------------------------|
--2---------------------------|--0---------------------------|
--10--9--10--7--10----9----|-------------------|------------------|
---------------------------|-------------------|------------------|
----------------7----------|--4----------------|------------------|
--2-------------7-----7----|--4----------------|------------------|
--2-------------5-----7----|--2----------------|------------------|
--0-------------------5----|-------------------|------------------|



Verse
--10~---------------|------------------|----------------------|
--12~---------------|------------------|----------------------|
--------------------|------------------|--4----4------4----4--|
--------------------|------------------|--4----4------4----4--|
--------------------|------------------|--2----2------2----2--|
--------------------|------------------|----------------------|
----------------------|----------------------|----------------------|
----------------------|----------------------|----------------------|
--4----4------4----4--|--4----4------4----4--|--4----4------4----4--|
--4----4------4----4--|--4----4------4----4--|--4----4------4----4--|
--2----2------2----2--|--2----2------2----2--|--2----2------2----2--|
----------------------|----------------------|----------------------|
----------------------|----------------------|----------------------|
----------------------|----------------------|----------------------|
----------------------|----------------------|----------------------|
--7----7------7----7--|--7----7------7----7--|--5----5------5----5--|
--7----7------7----7--|--7----7------7----7--|--5----5------5----5--|
--5----5------5----5--|--5----5------5----5--|--3----3------3----3--|
-----------------------|----------------------|----------------------|
-----------------------|----------------------|----------------------|
-----------7--7--------|--4----4------4----4--|--4----4------4----4--|
--2--------7--7--7--7--|--4----4------4----4--|--4----4------4----4--|
--2--------5--5--7--7--|--2----2------2----2--|--2----2------2----2--|
--0--------------5--5--|----------------------|----------------------|
----------------------|----------------------|----------------------|
----------------------|----------------------|----------------------|
--4----4------4----4--|--4----4------4----4--|----------------------|
--4----4------4----4--|--4----4------4----4--|--7----7------7----7--|
--2----2------2----2--|--2----2------2----2--|--7----7------7----7--|
----------------------|----------------------|--5----5------5----5--|
----------------------|----------------------|---------------------|
----------------------|----------------------|---------------------|
----------------------|----------------------|-----------7---------|
--7----7------7----7--|--5----5------5----5--|--2--------7----7----|
--7----7------7----7--|--5----5------5----5--|--2--------5----7----|
--5----5------5----5--|--3----3------3----3--|--0-------------5----|



Chorus
|-----------------------|----------------------|----------------------|
|-----------------------|----------------------|----------------------|
|*--4--------4--4----4--|--4--------4--4----4--|--4--------4--4----4--|
|*--4--------4--4----4--|--4--------4--4----4--|--4--------4--4----4--|
|---2h-------2--2----2--|--2h-------2--2----2--|--2h-------2--2----2--|
|-----------------------|----------------------|----------------------|
-----------------------|----------------------|----------------------|
-----------------2--3--|----------------------|----------------------|
--4--------2--4-----4--|----------------------|----------------------|
--4--------4--4-----4--|--7h-------7--7----7--|--7h-------7--7----7--|
--2--------2--2-----2--|--7h-------7--7----7--|--7h-------7--7----7--|
-----------------------|--5h-------5--5----5--|--5h-------5--5----5--|
----------------------|----------------------||
----------------------|----------------------||
----------------------|-----------7---------*||
--5h-------5--5----5--|--2--------7----7----*||
--5h-------5--5----5--|--2--------5----7-----||
--3h-------3--3----3--|--0-------------5-----||



Lyrics

INTRO

BRIDGE

Verse

[B]Last night a little dancer came dancin' to my door

[A]Last night a little angel Came [G]pumpin cross my [E]flo[D]or[A]
[B]She said "Come on baby I got a licence for love
[A]And if it expires pray [G]help from ab[E]ove[D]  [A]
CHORUS

[B]In the midnight hour she cried- "more, more, more"

[A]With a rebel yell she cried- [G]"more, more, [E]mor[D]e"[A]
[B]In the midniight hour babe- "more, more, more"
[A]With a rebel yell- "[G]more, more, [E]more" [D]More, [A]more, [B]more.
VERSE 2

[B]She don't like slavery, she won't sit and beg

[A]But when I'm tired and lonely she [G]sees me to bed[E]   [D]  [A]
[B]What set you free and brought you to be me babe
[A]What set you free I need you [G]hear by me[E]   [D]Be[A]cause
CHORUS

[B]In the midnight hour she cried- "more, more, more"

[A]With a rebel yell she cried- "[G]more, more, [E]mor[D]e"[A]
[B]In the midnight hour babe- "more, more, more"
[A]With a rebel yell- "[G]more, more, [E]mo[E]re"
BRIDGE

[G]     [F#]      [E]He lives in his own heaven

[G]     [F#]      [E]Collects it to go from the seven eleven
[G]     [F#]      [E]Well he's out all night to collect a fare
[G]     [F#]      [E]Just so long, just so long it don't mess up his hair.
INTRO


SOLO - NOT TABBED - PROGRESSION SAME AS CHORUS


DRUM BREAK


VERSE - BASS ONLY

[B]I walked the ward with you, babe

[A]A thousand miles with [G]you  [E]   [D]  [A]
[B]I dried your tears of pain, babe
[A]A million times for [G]you  [E]   [D]  [A]
[B]I'd sell my soul for you babe
[A]For money to burn with [G]you  [E]   [D]  [A]
[B]I'd give you all, and have none, babe
[A]Just, just, justa, justa to have you [G]here [E]by me
GUITAR IN

[D]Be[A]cause

CHORUS

[B]In the midnight hour she cried- "more, more, more"

[A]With a rebel yell she cried- "[G]more, more, [E]mor[D]e"[A]
[B]In the midniight hour babe- "more, more, more"
[A]With a rebel yell she cried "[G]more, more, [E]more" [D]More, [A]more, [B]more.
Oh yeah little [A]baby
she want [G]more
[E]More, more, [A]more, [D]more, [B]more.
Oh yeah little [A]baby
she want [G]more
[E]More, more, [D]more, [A]more, [B]more.
END

+--------------------------------------------------------------------------+

| This file is the author's own work and represents their interpretation |
| of the song. You may only use this file for private study, scholarship, |
| or research. |
+--------------------------------------------------------------------------+


Ultimate-Guitar.Com © 2005

Important: The song above is NOT stored on the Chordie server. The original song is hosted at www.ultimate-guitar.com. Chordie works as a search engine and provides on-the-fly formatting. Chordie does not index songs against artists/composers will. To remove this song please click here.

Text color:
Chord color:
Chord grids: 
Font size:    
Page size: 

A B D E F# G
variations - click chord images

Login - add to songbook

Transpose chords

Tuning

Rating click stars to rate

Layout
Accuracy

SHARE PAGE  




You need to log in to post comments