Guitar Tabs, Chords and Lyrics


Free Bird  Lynard Skynard

[G] If I [D/F#]leave here to[Em]morrow,
[F] Would you [C]still remember me[D]?
[G] For I must [D/F#]be trav'ling [Em]on now
[F] 'Cause there's too many plac[C]es I've got to see. [D]
[G] But if I [D/F#]stayed here with [Em] you girl,
[F] Things just [C]couldn't be the sa[D]me.
[G] 'Cause I'm as [D/F#] free as a [Em]bird now,
[F] And this [C]bird you'll never cha[D]nge.
[F] And this [C]bird you cannot cha[D]nge.

[F] And this [C]bird you cannot cha[D]nge.
[F] Lord kno[C]ws I can't [D]change.
[G] Bye, bye [D/F#]baby it's been a [Em]sweet love,
[F] Though this [C]feeling I can't cha[D]nge
[G] But please don't [D/F#]take it so [Em]badly
[F] 'Cause the Lord knows[C] I'm to blame. [D]
Chorus
[F] Lord [C]help me, I can't [D]change.


==============================================================


Band: Lynard Skynard
Song: Free Bird
Tabbed by: Ben Haukom

Repeat chords: G,D/F#,EM,F,C With guitar 2 playing this:

Listen for timing

E-----------------------------------------------------------
B-----------------------------------------------------------
G--12--11--12-11---12-11-9-7-9---7-9--7-9-7-----10-10-9-7-5-
D-------------------------------------------9-9-------------
A-----------------------------------------------------------
E-----------------------------------------------------------

E-----------------------------------------------------------
B-----------------------------------------------------------
G-5-5-7-9-12-12-11---11-12-11---11-12-11---11-12-11---------
D-----------------------------------------------------------
A-----------------------------------------------------------
E-----------------------------------------------------------

Questions or comments e-mail me at benhaukom@hotmail.com

===============================================================

Lynyrd Skynyrd

"Free Bird"

Tabbed by Jeff Easton

Eastonjeff@hotmail.com


Slide Intro
EI-----------------------------------------------
DI-----------------------------------------------
GI--/12--11/12/11--12-12/11/9/7/9--7--9--9-9-9/5-
BI-----------------------------------------------
AI-----------------------------------------------
EI-----------------------------------------------

EI-----------------------------------------------
DI-------------------------------------------17b-
GI-12-12--12/11/9---12-11--15/14/15--15/14-------
BI-----------------------------------------------
AI-----------------------------------------------
EI-----------------------------------------------

For Verse Consider Top Tab with chords

That's all i got for ya'.


============================================================

Author/Artist: Lynyrd Skynyrd
Title: Freebird Solo

This is one hell of a long solo,if you think it's going to be too much
to learn then I suggest you pick up a few licks from the tab and play them
in any order you like. Most people wouldn't even notice.
If you really want to play it like the record, then it's all here for you.
Also, I didn't try too hard on the timing of it, but it is simple to get right.

-15--------15----------------------------|---------------18-----18------------
----15-18b----18b-18b-18-15-18-18b-15-18b|-18-15-18b-18b----18b----18b-18b----
-----------------------------------------|------------------------------------
-----------------------------------------|------------------------------------
-----------------------------------------|------------------------------------
-----------------------------------------|------------------------------------

-15--------15----------------------------|---------------18-----18------------
----15-18b----18b-18b-18-15-18-18b-15-18b|-18-15-18b-18b----18b----18b-18b----
-----------------------------------------|------------------------------------
-----------------------------------------|------------------------------------
-----------------------------------------|------------------------------------
-----------------------------------------|------------------------------------

-----18-----18----|-------|----------------|--------------|-------------------
-18b----18b-------|-18-15-|-18-18b-18b-p15-|-18b-18b-18p15|-----15-18p15------
------------------|-------|----------------|--------------|-17b---------------
------------------|-------|----------------|--------------|-------------------
------------------|-------|----------------|--------------|-------------------
------------------|-------|----------------|--------------|-------------------
x18 x18 x12

-------------------------------|----------------------------------------------
-----15------------------------|----------------------------------------------
-17b----15----------15---------|-15----15-17p15-17p15----15-17p15-17p15-------
-----------17p15h17----17p15h17|----17----------------17----------------------
-------------------------------|----------------------------------------------
-------------------------------|----------------------------------------------

E

Important: The song above is NOT stored on the Chordie server. The original song is hosted at www.ultimate-guitar.com. Chordie works as a search engine and provides on-the-fly formatting. Chordie does not index songs against artists/composers will. To remove this song please click here.

Text color:
Chord color:
Chord grids: 
Font size:    
Page size: 

C D D/F# Em F G
variations - click chord images

Login - add to songbook

Transpose chords

Tuning

Rating click stars to rate

Layout
Accuracy

SHARE PAGE  




You need to log in to post comments