Guitar Tabs, Chords and Lyrics


Show Me How To Live   Audioslave


+ --------------------------------------------------------------------- +
| Ultimate Guitar Tabs Archive - your #1 source for tabs!               |
| http://www.ultimate-guitar.com/                                       |
|                                                                       |
| Over 150,000 of guitar, guitar pro and bass tabs! Also lessons, news, |
| columns and guitar forums!                                            |
+ --------------------------------------------------------------------- +

Artist: Audioslave
Song: Show Me How To Live


-----------------------------------------------------------------
              Show Me How To Live - Audioslave
-----------------------------------------------------------------
Tabbed by: romanbirg
Email: romanbirg@gmail.com

this is my first tab, so go easy, this song is very addictive, so I made a tab.
lol. But im sure this tab is about 97% correct, if not make some changes. 
 
 
| h hammer-on
| p pull-off
| x Mute note
Tuning: Dadgbe

Intro - Distrortion
|---------------|
|---------------|
|----9----------|
|----9----2-----|   x4
|----7----2-----|
|---------2-----|

Verse - Heavy Distortion
|---------------------------------------------------------------|
|---------------------------------------------------------------|
|---------------------------------------------------------------|
|-------2-------------------------------------------------------|
|------2--------------------------------------------------------|
|---0h2----x0-x0-2---x0-x0-2-----7-7h8p7---5h7p0----2h5p0-------|

|-----------------------------|
|-----------------------------|
|-----------------------------|
|-------2---------------------|   [x2] [x3 (palm mute] [x2]
|------2----------------------|
|---0h2---x0-x0-2---x0-x0-2---|


Chorus - Heavy Distortion
|------------------------------|
|------------------------------|
|------------------------------|
|--2----5-------------0h2------|    x8
|--2----5----------------------|
|--2----5-----0h2p0h2-----0----|


Verse - Heavy Distortion
|---------------------------------------------------------------|
|---------------------------------------------------------------|
|---------------------------------------------------------------|
|-------2-------------------------------------------------------|
|------2--------------------------------------------------------|
|---0h2----x0-x0-2---x0-x0-2-----7-7h8p7---5h7p0----2h5p0-------|

|-----------------------------|
|-----------------------------|
|-----------------------------|
|-------2---------------------|   [x2 (palm mute]
|------2----------------------|
|---0h2---x0-x0-2---x0-x0-2---|


Chorus - Heavy Distortion
|------------------------------|
|------------------------------|
|------------------------------|
|--2----5-------------0h2------|    x8
|--2----5----------------------|
|--2----5-----0h2p0h2-----0----|

Bridge
The bridge requires a sound effect called step, if u have it just hit the note up
and down repeatedly with the very tip of ur pick if u don't have it just do it anyways
|---------|
|----5----|
|---------|
|---------|
|---------|
|---------|

Intro - Distortion
|---------------|
|---------------|
|----9----------|
|----9----2-----|   x8
|----7----2-----|
|---------2-----|

Chorus - Heavy Distortion
|------------------------------|
|------------------------------|
|------------------------------|
|--2----5-------------0h2------|    x8
|--2----5----------------------|
|--2----5-----0h2p0h2-----0----|

Outro - Heavy Distortion
|--------------|
|--------------|
|--------------|
|---2-------2--|    x4
|---2-------2--|
|---2-------2--|


Enjoy! This tab is 99.8% correct. I'm sure of it!

END

+--------------------------------------------------------------------------+
| This file is the author's own work and represents their interpretation   |
| of the song. You may only use this file for private study, scholarship,  |
| or research.                                                             |
+--------------------------------------------------------------------------+

Ultimate-Guitar.Com © 2005

Important: The song above is NOT stored on the Chordie server. The original song is hosted at www.ultimate-guitar.com. Chordie works as a search engine and provides on-the-fly formatting. Chordie does not index songs against artists/composers will. To remove this song please click here.

This song is displayed as text-only. Transposing and tuning is only available for chordpro-songs.

Login - add to songbook

Rating click stars to rate

Layout
Accuracy

SHARE PAGE  




You need to log in to post comments