Guitar Tabs, Chords and Lyrics


All I Wanna Do  Sheryl Crow

Hit it![Bb6]
[A]  This ain't no disco[Bb6]
[A]  It ain't no country club either[Bb6]
[A]  This is LA!
"[E]All I wanna do is have a little fun before I die,"
says the [C]man next to me out of no[D]where
It's apropos of nothing, he says his name is William,
but I'm sure he's Bill or Billy or Mac or Buddy
And he's plain ugly to me and I wonder if he's
ever had a day of fun in his whole life
We are drinking beer at noon on Tuesday
in a bar that faces a giant car wash
The good people of the world are washing their cars on their lunch break
hosing and scrubbin as best they can in skirts in suits
[A]  They drive their shiny Datsuns and [Bb6]Buicks
[A]  Back to the phone company, the record [Bb6]store, too
[A]  Well they're nothing like Billy and me, cause
All I wanna [E]do is have some fun, I got a [C7]feeling I'm not the [D]only one
All I wanna [E]do is have some fun, I got a [C7]feeling I'm not the [D]only one
All I wanna [E]do is have some fun, until the [C7]sun comes up over [B7]Santa Monica Blvd
I like a good beer buzz early in the morning
And Billy likes to peel the labels from his bottles of Bud
He shreds them on the bar then he lights every match in an oversized pack
letting each one burn down to his
thick fingers before blowing and cursing them out
and he's watching the bottles of Bud as they spin on the floor
And a happy couple enters the bar
Dangerously close to one another
The bartender looks up from his want ads
All I wanna do is have some fun, I got a feeling I'm not the only one
All I wanna do is have some fun, I got a feeling I'm not the only one
All I wanna do is have some fun, until the sun comes up over Santa Monica Blvd
(Same chords as verse)
Otherwise the bar is ours,
The day and the night and the car wash too
The matches and the Buds and the clean and dirty cars
The sun and the moon, but
All I wanna do is have some fun, I got a feeling I'm not the only one
All I wanna do is have some fun, I got a feeling I'm not the only one
All I wanna do is have some fun, I got a feeling the party's just begun
All I wanna do is have some fun, I won't tell you that you're the only one
All I wanna [E]do is have some fun, until the [C7]sun comes up over [D]Santa Monica Bl[E]vd
Until the [C]sun comes up over [B7]Santa Monica [E]Blvd
[E]   [C7]    [D]   [E]   [C7]    [D]   [E]   [C7]    [B7]    [E]     [E7]                                                                              
Chords: Bb6-6x8786  A-577655  E-022100  C-x32010  D-xx0232  C7-x32310

...........
There are two guitars on the recording - one is an acoustic which strums the
chords as shown above (although outside the chorus all you can hear is
its picking noise) and the other is an electric which plays the funky intro
with wah-wah:
] ] ] ] ] ] ] ]
|---------------------------------|-----------------------------------|
|-9/10--10----9/10--10----9/10--10|-----9/10--10----11--11--11h13p11--| x2
|---------------------------------|-----------------------------------|
|---------------------------------|-----------------------------------|
|---------------------------------|-----------------------------------|
|---------------------------------|-----------------------------------|

followed by
] ] ] ] ] ] ] ]
|---------------------------------|-----------------------------------|
|-9/10--10----9/10--10----9/10--10|-----9/10--------10----------------|
|---------------------------------|-----------------------------------|
|---------------------------------|-----------------------------------|
|---------------------------------|-----------------------------------|
|---------------------------------|-----------------------------------|

The following is the solo, the first four bars of which are also played twice
over the line "We are drinking beer on Tuesday.." and once over the line
"thick fingers before..".
] ] ] ] ] ] ] ] ] ] ] ] ] ] ] ]
|-----------------|-----------------|---------------------|-----------------|
|-----------------|-----------------|---------------------|-----------------|
|-----------------|-----------------|---------------------|-----------------|
|-----------0-----|---0----0h2--0---|---------------------|-----------------|
|-------0-2-----0-|-2-----2---------|----------------0-h2-|-0-------2-------|
|-0---------------|-----------------|-3-------3-3-3-------|-------3-----3--|

] ] ] ] ] ] ] ] ] ] ] ] ] ] ] ]
|-----------------|-----------------|-----------------|-----------------|
|-----------------|-----------------|-----------------|---------8p7-----|
|-----------------|-----------------|-----------------|-------------7--|
|-----------0-----|---0----0h2--0---|-5-----5-5--7-/9-|-7---------------|
|-------0-2-----0-|-2-----2---------|--------5--------|-----------------|
|-0---------------|-----------------|-----------------|-----------------|

Finally, right at the very end of the song, strum the following E7 chord
backwards (ie from high to low)
|-12---\-
|-12---\-
|-13---\-
|-12---\-
|-14---\-
|-12---\-


Important: The song above is NOT stored on the Chordie server. The original song is hosted at www.xguitar.com. Chordie works as a search engine and provides on-the-fly formatting. Chordie does not index songs against artists/composers will. To remove this song please click here.

Text color:
Chord color:
Chord grids: 
Font size:    
Page size: 

A B7 Bb6 C C7 D E E7
variations - click chord images

Login - add to songbook

Transpose chords

Tuning

Rating click stars to rate

Layout
Accuracy

SHARE PAGE  




You need to log in to post comments