Guitar Tabs, Chords and Lyrics
Update 25:10. 13:00. Site is back up running again. Songbooks are recovered. Woring on getting search back up..


Three Words Away  Keith Harling

Song: Three Words Away
Artist: Keith Harling
Songwriter: Keith Harling
Album: Write It In Stone
Capo I
Intro: G Bm7 C D G Bm7 C D
It's just three hours from [G] here
Love so far but so [Bm7] near
I left her in the [C] dark
And now she thinks that I don't [D] care
It's just a quarter to [G] call
Woudn't take long at [Bm]all
And I could be home [C] today
[D] But I'm just three words [G] away
Chorus:
Darling, I [C] love you
Like nobody [G] else can do
Three words, I was [D] wrong
If you'll forgive me, I'll [G] come back home
'Cause darling, I [C] need your love
My leavin' didn't [G] leave me with much
Girl, all I can [Am] say[C] is I'm just [D] three words [G] away
[Bm7] [C] [D]
It's just my love on the [G] line
That's got me wonderin' [Bm7] why
I left my heart and my [C] soul
Down in Georgia last [D] night
Yes I'm a fool and I [G] know
I may have to live with my [Bm7] mistake
So if you want me, my [C] love
I'm just three words [G] away
Repeat Chorus
Girl, all I can [Am] say [C] is I'm just [D] three words [G] away
[Bm7]________[C]______[D]______[G]______________
Intro: (x2)
 
 E-----------------------------------------------------------------------------------------------------------
 B-----------------------------------------------------------------------------------------------------------
 G--------------0-----------------------------------0------------------------------0---------------------
 D----------0-------4---2---0-------------------------4---2---0-------------------4---2---0-----0
 A------------------------------------0----2----------------------------2---3----------------------3---
 E-----3---------------------------------------------------------------------------------------------------
 E-------------------------------------------
 B-------------------------------------------
 G------0-----------------------------------
 D------------4---2---0-------------------
 A----------------------------3--s5--------
 E----------------------------------------3--

Fill after 1st Chorus:
 
 E-----------------------------------------------------------------------------------------------------------
 B-----------------------------------------------------------------------------------------------------------
 G--------------0-----------------------------------0------------------------------0---------------------
 D----------0-------4---2---0-------------------------4---2---0-------------------4---2---0-----0
 A------------------------------------0----2----------------------------2---3----------------------3---
 E-----3---------------------------------------------------------------------------------------------------

Outro:
 
 E----------------------------------------------------------------------------------------
 B----------------------------------------------------------------------------------------
 G--------------0----------------------------0------------------------------------------
 D----------0-------4---2---0------------------4---2----0---------0---------------
 A----------------------------------0---2-------------------------3---------------------
 E-----3----------------------------------------------------------------------------------
 E------------------------------------------------------------3-----
 B------------------------------------------------------------0----
 G-----------0-----------------------------------------------0---
 D----------------4----2----0------------------------------0-----
 A------3--------------------------0---h2----0-----------2----
 E----------------------------------------------------2------3-----


Important: The song above is NOT stored on the Chordie server. The original song is hosted at www.allcountrytabs.com. Chordie works as a search engine and provides on-the-fly formatting. Chordie does not index songs against artists'/composers' will. To remove this song please click here.

Text color:
Chord color:
Chord grids: 
Font size:    
Page size: 

Am Bm Bm7 C D G

Login - add to songbook

SHARE PAGE  




You need to log in to post comments