Guitar Tabs, Chords and Lyrics
Update 25:10. 13:00. Site is back up running again. Songbooks are recovered. Woring on getting search back up..


There's No Way  Alabama



 
 e---------------------------------------------------------------e
 b-----------------4----------4---0----------------------------b
 g--------3-----------------------------0---3---3-------------g
 D----0------5---------------------------------------5---0----D
 A---------------------------------------------------------------A
 E---------------------------------------------------------------E
 e---------------------------------------------------------------------
 --------------
 b--------------o-----------------------o--------------------o---------
 -----------3
 g----o------------o----------------o-----o-------------o-----o------3-
 -----3--
 D----------o---------------5----------------------3-------------------
 ----3------ A---------------------------------------------------------
 --------------0----------
 E----4---------------------3----------------------3-------------------
 ------------
 

As I lay....
 
 e--3-----------
 b---------------
 g--------------
 D-0-----------
 A--------------
 E--------------
 

1st Verse:
As I la[D]y by your side [A]and hold you[D] tonight,
I [F#m]want you to understand[G], [A]
This lo[D]ve that I feel[A] is so right [D]and so real,
And I rea[F#m]lize how lucky I am. [A]
And should you ev[G]er wonder if my love is tr[Bm]ue,
There's some[G]thing that I wanna m[D]ake clear t[G]o you. [A]
Chorus:
[A]There's no way [Bm]I could make it[G] without you, [D]
[D]There's no way[Bm] that I'd e[G]ven try, [A]
[A]If I[Bm] had to survi[A]ve, without you i[Bm]n my life,
I [G]know I wouldn't last a day, [Em]
[Em]Oh baby, the[A]re's no way.
(Repeat opening riff)
2nd Verse:
It means so m[D]uch to me, whene[A]ver I see, [D]
That "wan[F#m]ting me look" in your eyes, [G] [A]
[D]I don't know how [A]I could do withou[D]t,
[F#m]Holding you close every night. [A]
I've wa[Bm]ited so long just to have you[G] to hold,
And no[G]w that I've got you[D], I'll never le[G]t go. [A]
(Repeat Chorus)
Bridge:
[Bm]I never knew until you, [G]what I was missing, [F#m]
Now you say f[Bm]orever, and I find my [G]heart is listening. [A]
[A]Yes I'm listening.
(Repeat Chorus)
(Repeat Opening Riff with the 1st have of the riff done twice)
Tag: Baby, there's just no way.
Questions or Comments?
Eric Huffman
Str8Fan@prodigy.com

Important: The song above is NOT stored on the Chordie server. The original song is hosted at chordiearchive.chordie.com. Chordie works as a search engine and provides on-the-fly formatting. Chordie does not index songs against artists'/composers' will. To remove this song please click here.

Text color:
Chord color:
Chord grids: 
Font size:    
Page size: 

A Bm D Em F#m G
Rate #2 of 3 versions

Login - add to songbook

SHARE PAGE  




You need to log in to post comments