Guitar Tabs, Chords and Lyrics
Major upgrade!! After one year development the new version of Chordie is now online! Please give feedback.


Noticiero  Ricardo Arjona



NOTICIERO (ricardo arjona)
INTRO
 
 e|-7s10-10--8p7---7------------------------------7s10-10-10h12-10-
 B|-------------10--10-8------10s12-10------7-8-10-----------------
 G|-----------------------9-7------------7-9-----------------------
 D|----------------------------------------------------------------
 A|----------------------------------------------------------------
 E|----------------------------------------------------------------
 e|-7-8p7--------7----------8h7------
 B|------10-8-10--8------------10-8--
 G|----------------7h9-7---7---------
 D|----------------------------------
 A|----------------------------------
 E|----------------------------------

[G] Este es el notici[D]ero de la mana[C]na
[G]el unico que dic[D]e lo que le da la gan[C]a
[G]despues de un cor[F#m]te regresamo[Em]s
C G D C
con lo mas completo, de lo que soportamos.
[G]O.J. salio [D]libre de culp[C]a
[G] diez millones dio mic[D]hael, por discul[C]pa
[G] bapulearon a ot[F#m]ro indocumenta[Em]do
fue en def[C]ensa prop[G]ia, dijeron[D] los del jura[C]do.
[G]Se dio a la fug[D]a el ex-presiden[C]te
[G]con lo que le quito[D] a toda su gen[C]te
[G]juega en un casi[F#m]no en montecar[Em]lo
[C]y bebe champagn[G]e y aqui[D] nadie va a juzgar[C]lo.
*CORO*
[G] Va a nev[F#m]ar en hait[Em]i
y hay bajo c[C]ero en puerto rico
[G] no salga [F#m]usted de a[Em]lli
que el traf[C]ico esta en la hora pi[G]co
y hay mas s[D]mog que en chern[Em]ovil
[C] abrace a los su[G]yos y aferre[D]ce
[C] que aqui no es bueno el que a[G]yuda
sino el que no j[D]ode, acuerdese[C]
SOLO
 
 e|--10s12-10-10-8-8-7-7--------------7-------------------8r7------
 B|-8-------------------10-10----------8-10-10b12r10-8---8---10-8--
 G|----------------------------------------------------s9----------
 D|----------------------------------------------------------------
 A|----------------------------------------------------------------
 E|----------------------------------------------------------------
 e|7----------------s12-12-12-10-8-10-7-s12-10---------------------
 B|-8-10-10b12r10-8---------------------------s12-10-----7-8s10--12
 G|-------------------------------------------------12--9----------
 D|----------------------------------------------------------------
 A|----------------------------------------------------------------
 E|----------------------------------------------------------------
 e|------------s12---
 B|10-8-10-----------
 G|------------------
 D|------------------
 A|------------------
 E|------------------

[G] El vaticano proh[D]ibio los anticonceptiv[C]os
[G]prefieren ninos con [D]hambre que un preservati[C]vo
[G] y las ciguenas tr[F#m]abajan a dobles t[Em]urnos
[C] pensaran abri[G]r sucursale[D]s en saturno[C]
[G] El futbol gana terren[D]o en los estados unido[C]s
[G] quieren cambiar la estru[D]ctura pa' que tenga senti[C]do
[G] hay que agrandar [F#m]las porteri[Em]as y [C]ocho tiempos fue[G]ra
pa' vende[D]rnos porquer[C]ias
[G] Se cree que el chupaca[D]bras es un caso tip[C]ico
[G] producto de la mix[D]tura entre dos poli[C]ticos
[G] es un dep[F#m]redador furti[Em]vo
[C] abrase vi[G]sto semejan[D]te pareci[C]do
*CORO*
[G] Va a nev[F#m]ar en hait[Em]i
y hay bajo c[C]ero en puerto rico
[G] no salga [F#m]usted de a[Em]lli
que el traf[C]ico esta en la hora pi[G]co
y hay mas s[D]mog que en chern[Em]ovil
[C] abrace a los su[G]yos y aferre[D]ce
[C] que aqui no es bueno el que a[G]yuda
sino el que no j[D]ode, acuerdese[C]
SOLO 2
 
 e|-12-14-15--15------10h12-10-------------------------------------
 B|--------------13-13-------------------------12-----12b13r12-10--
 G|------------------------------14b16r14-12-14--12--9-----------12
 D|----------------------------------------------------------------
 A|----------------------------------------------------------------
 E|----------------------------------------------------------------
 e|----------------------s12-12-10h12p10s8-8-10--------------------
 B|---------------10h12---------------------------------------12---
 G|-14b16r14-12-14-----12-----------------------14b16r14-12-14--12-
 D|----------------------------------------------------------------
 A|----------------------------------------------------------------
 E|----------------------------------------------------------------
 e|--------------------s12--12-10-
 B|--------10s12-10-10------------
 G|-9-11-12-----------------------
 D|-------------------------------
 A|-------------------------------
 E|-------------------------------

[G] si le hemos parecid[D]o amarillis[C]tas
[G] disculpe usted, no hub[D]o noticias opt[C]imistas
*CORO*
[G] Va a nev[F#m]ar en hait[Em]i
y hay bajo c[C]ero en puerto rico
[G] no salga [F#m]usted de a[Em]lli
que el traf[C]ico esta en la hora pi[G]co
y hay mas s[D]mog que en chern[Em]ovil
[C] abrace a los su[G]yos y aferre[D]ce
[C] que aqui no es bueno el que a[G]yuda
sino el que no j[D]ode, acuerdese[C]
hasta manana......
OUTRO
 
 e|------------------------------------------------8-10-7-
 B|-12p10s8-10-12------------------------------8-10-------
 G|--------------12--9-11b1211-9-9--7s9-7-5-5-------------
 D|-------------------------------------------------------
 A|-------------------------------------------------------
 E|-------------------------------------------------------
 e|-----------------------------------------3-3s5-3-2---3-
 B|-12p10s8-10-12---------------------------------------0-
 G|--------------12--9-11b1211-9-9--7s9-7-5-------------0-
 D|-----------------------------------------------------0-
 A|-----------------------------------------------------2-
 E|-----------------------------------------------------3-


Important: The song above is NOT stored on the Chordie server. The original song is hosted at chordiearchive.chordie.com. Chordie works as a search engine and provides on-the-fly formatting. Chordie does not index songs against artists'/composers' will. To remove this song please click here.

Text color:
Chord color:
Chord grids: 
Font size:    
Page size: 

C D Em F#m G
Rate #1 of 1 versions

Jango Player

Login - add to songbook

SHARE PAGE  




You need to log in to post comments