Guitar Tabs, Chords and Lyrics
Update 25:10. 13:00. Site is back up running again. Songbooks are recovered. Woring on getting search back up..


Delivery  Babyshambles



 
 E-10-----10----10-----10------|
 

 
 B---11-----11----11-----11----|
 

 
 G-----12-----12----12-----12--|
 

 
 D-----------------------------| x4
 

 
 A-----------------------------|
 

 
 E-----------------------------|
 

[G]By, o[F/G]h by, th[F/G]e way of a[F/G]n explanati[Bb]on
[G]Cast [F/G]adrift off [F/G]the shores of [F/G]Shotterís Nati[Bb]on
[C]I had a look in, [B]Cave my skull in like a [Bb]prick
[G]Oh [F/G]now, W[F/G]hat use [F/G]am I to any[Bb]one?
[G]Forl[F/G]orn, fr[F/G]ozen, Bene[F/G]ath the sum[Bb]mer
[C]Donít sing along [B]or youíll get what Iíve [Bb]got, oh
CHORUS
 
 E--3----1----6-----10------|
 B-4-4--1-1--6-6--10--10----|
 G----5----2----7-------11--| x2
 D--------------------------|
 A--------------------------|
 E--------------------------|
 

[Gm]Here comes a d[Dm]elivery
[F]Straight from [Bb]the heart of my mi[D]sery
[Gm]So, comes a de[Dm]livery
[F]Straight from [Bb]the heart, to[D] you.
VERSE 2
[G]Yeah you, no[F/G]w you, now[F/G] you youíve fi[F/G]nally left s[Bb]chool
[G]Oh w[F/G]hat on e[F/G]arth Do you i[F/G]ntend to [Bb]do?
[C]See if you can, T[B]ake the man, go round to[Bb]wn
[G]Where all y[F/G]our Skins, an[F/G]d Modís, y[F/G]ou get toge[Bb]ther
[G]Make [F/G]pretend [F/G]Itís 1[F/G]969 for[Bb]ever
[C]Find a girl, have[B] a drink, Have a dance a[Bb]nd play
CHORUS
 
 E--3----1----6-----10------|
 B-4-4--1-1--6-6--10--10----|
 G----5----2----7-------11--| x2
 D--------------------------|
 A--------------------------|
 E--------------------------|
 

[Gm]The song thatíll d[Dm]eliver me
[F]Straight from [Bb]the harshness of m[D]isery
[Gm]Cos this songs[Dm] a delivery
[F]Straight from [Bb]the heart to [D]you
 
 E--3----1----6-----10------|
 B-4-4--1-1--6-6--10--10----|
 G----5----2----7-------11--| x2
 D--------------------------|
 A--------------------------|
 E--------------------------|
 

[Gm]Yes here comes a [Dm]delivery
[F]Straight from [Bb]the heart of my mi[D]sery
[Gm]Oh that song thatíll de[Dm]liver me
[F]Straight from [Bb]the heart, to[D] you
 
 E--3----1----6-----10------|
 B-4-4--1-1--6-6--10--10----|
 G----5----2----7-------11--| x2
 D--------------------------|
 A--------------------------|
 E--------------------------|
 

SOLO
 
 E---------------------------------------------------|
 B---------------------------------------------------|
 G-12--12--12-12-12-10--10-12-10---------10--10------|
 D--------------------12--------12-10-12---12--------|
 A---------------------------------------------------|
 E---------------------------------------------------|
 E------------------------------3-6hp3-3-6hp3--------|
 B--------------------------6-6--------------5-3-----|
 G-5--5--5-5-5-3-3-----3------------------------5b-3-|
 D--------------5-5-3-5-5----------------------------|
 A---------------------------------------------------|
 E---------------------------------------------------|
 

INTERLUDE
 
 E-3--3----1--6--3--3----1-1-6-6-------|
 B-4-4--4--1--6--4-4-4---1-1-6-6-------|
 G-5-----5-2--7--5----5--2-2-7-7-------|
 D-5-------3--8--5-------3-3-8-8-------|
 A-3-------3--8--3-------3-3-8-8-------|
 E-3-------1--6--3-------1-1-6-6-------|
 E-3--3----1--6--3--3----1-1-1-1-6-6-6-|
 B-4-4--4--1--6--4-4-4---1-1-1-1-6-6-6-|
 G-5-----5-2--7--5----5--2-2-2-2-7-7-7-|
 D-5-------3--8--5-------3-3-3-3-8-8-8-|
 A-3-------3--8--3-------3-3-3-3-8-8-8-|
 E-3-------1--6--3-------1-1-1-1-6-6-6-|
 

[Gm]So here comes a de[Dm]livery
[F]Straight from [Bb]the heart of [D]my misery
[Gm]Here comes a d[Dm]elivery
F Bb D (let Ring)
Straight from the heart, to you
Any question's Email me at libertinekopite@hotmail.co.uk, id like to thank
tab for the interlude as i could not work this out

Important: The song above is NOT stored on the Chordie server. The original song is hosted at chordiearchive.chordie.com. Chordie works as a search engine and provides on-the-fly formatting. Chordie does not index songs against artists'/composers' will. To remove this song please click here.

Text color:
Chord color:
Chord grids: 
Font size:    
Page size: 

B Bb C D Dm F F/G G Gm
Rate #7 of 10 versions

Jango Player

Login - add to songbook

SHARE PAGE  




You need to log in to post comments