Guitar Tabs, Chords and Lyrics
Server problems seems to be fixed. Chordie has been experiencing problems with songs disappearing. These issues now seems to be fixed, but still verifying the fix. If you find anything strange, please email admin@chordie.com.


Alternative to Love  Brendan Benson



 
 e|-----2-2-2-2-2--|
 

 
 B|-----3-3-3-3-3--|
 

 
 G|-----2-2-2-2-2--|
 

 
 D|--0--0-0-0-0-0--| 3x
 

 
 A|----------------|
 

 
 E|----------------|
 

 
 e|----2-2------2-2---2-2-2-2-2----2-2-2-2-2----2-2-2-2-2---------------|
 

 
 B|----3-3------3-3---3-3-3-3-3----3-3-3-3-3----3-3-3-3-3---------------|
 

 
 G|--0-0-0----0-0-0---0-0-0-0-0----0-0-0-0-0----0-0-0-0-0---------------|
 

 
 D|---------4---------0-0-0-0-0----0-0-0-0-0----0-0-0-0-0------0h2-0----|
 

 
 A|----------------2------------2------------2-------------0h2-------2--|
 

 
 E|---------------------------------------------------------------------|
 

What have I [Bb]done?[C]
What have I [D]done?[G]
Chorus:
[Em]Maybe I'm just damaged goods
And [A]baby you're a babe in the woods
And [Em]me I'm just a little lost lamb
But [A]you love me wherever I am
And [Em]maybe I've been caught red handed
Maki[A]ng off like a lucky bandit
This[A] wasn't how I planned it
Verse 2:
Maybe this time I could stay
And let myself get carried away
Maybe this time it's too late
We could make a move or we could wait
Maybe she will understand
And not expect too much from one man
Maybe she can
Or maybe she canít
Chorus 2:
Maybe when I've changed my tune
I'll come out of my solitude
And start to live my life anew
And spend the rest of my days pleasing you
And on the path to righteousness
I'll swept the dust
Whatever it takes to gain your trust
I'll do what [G]I mu[D]st
I'll do what [G]I mu[D]st (I'll do what I must)
I'll do what [G]I mu[D]st (I'll do what I must)
I'll do what [G]I mu[D]st
Maybe I'm just damaged goods
And, baby, you're a babe in the woods
And me, I'm just a little lost lamb
But you love me wherever I am
And maybe I've been caught red handed
Making off like a lucky bandit
And now I walk this planet
[Em]Forever it's a charm, [A]the alternative to love

Important: The song above is NOT stored on the Chordie server. The original song is hosted at chordiearchive.chordie.com. Chordie works as a search engine and provides on-the-fly formatting. Chordie does not index songs against artists'/composers' will. To remove this song please click here.

Text color:
Chord color:
Chord grids: 
Font size:    
Page size: 

A Bb C D Em G
Rate #1 of 4 versions

Login - add to songbook

SHARE PAGE  




You need to log in to post comments