Guitar Tabs, Chords and Lyrics
Major upgrade!! After one year development the new version of Chordie is now online! Please give feedback.


Going to Hell  The Brian Jonestown Massacre



 
 e|----------------------------------| 
 

 
 B|----------------------------------| 
 

 
 G|----------------------------------| 
 

 
 D|--7--5----5/7-7-7/9--7-7-7-5------|
 

 
 A|--------7------------------------ | 
 

 
 E|----------------------------------| x2
 

 
 e|----------------------------------------------------------| 
 

 
 B|----------------------------------------------------------| 
 

 
 G|----------------------------------------------------------| 
 

 
 D|----------------------------------------7-7-5-----5/7-----| 
 

 
 A|--7-7-7/9-7/9-7-7-7-5-7-7-7/9-7-----------7---------------| 
 

 
 E|----------------------------------------------------------| 
 

Verse A D G D
I've been out on my own
[A]I've been [D]getting what's [G]mine [D]
[A]I watch you [D]grab what you [G]can you'r[D]e crazy
[A]'Cause you're [D]all out of [G]time [D]
Chorus A G
But you live in a dream
And it's not going [D]well
There's no one who [G]cares
'Cause your [D]living in [A]hell
A D G D x2
Verse A D G D
Well they said you've been good
[A]And some s[D]ay you've been ba[G]d [D]
[A]I like to [D]laugh when your h[G]appy ba[D]by
[A]You make me [D]cry when your [G]sad [D]
Chorus A G
I live in a dream
But you're living in hel[D]l
And there is nothing to [G]do
'Cause I know it t[D]oo well [A]
I know it too w[A]el[D]l [G] [D]
Solo A D G D x4
[A]A [G]D [D]G [G]D [D]X4
Verse A D G D
I've been out on my own
[A]I've been [D]doing real [G]fine [D]
[A]I watch to g[D]et what you ca[G]n you're [D]crazy
[A]Seems like you[D]'re all out[G] of tim[D]e
Chorus A G
Well you're living a dream
And it's dragging you [D]down
And there's no one to [G]help
'Cause there's [D]no one a[A]round [D] [G] [D]
There's no one [A]around[D] [G] [D]
There's no one [A]around[D] [G] [D]
There's no one [A]around[D] [G] [D]
There's no one [A]around[D] [G] [D]
There's no one [A]around[D] [G] [D]
There's no one [A]around[D] [G] [D]
There's no one [A]around[D] [G] [D] [A]

Important: The song above is NOT stored on the Chordie server. The original song is hosted at chordiearchive.chordie.com. Chordie works as a search engine and provides on-the-fly formatting. Chordie does not index songs against artists'/composers' will. To remove this song please click here.

Text color:
Chord color:
Chord grids: 
Font size:    
Page size: 

A D G
Rate #1 of 7 versions

Jango Player

Login - add to songbook

SHARE PAGE  



You need to log in to post comments