Guitar Tabs, Chords and Lyrics
Update 25:10. 13:00. Site is back up running again. Songbooks are recovered. Woring on getting search back up..


Coleccionista de canciones  Camila



 
 E-------------------------------|
 

 
 B-1/3-5---1/3-----1/3-5---1/3---|
 

 
 G-2/4-5-4-2/4-2---2/4-5-4-2/4-2-|
 

 
 D-------5-----3---------5-----3-|
 

 
 A-------------------------------|
 

 
 E-------------------------------|
 

T, col[G]eccionista de canciones, dame razones para vivir.
T, la duea[G] de mis sueos, qudate en ellos y hazme sentir.
Y [Am]as, en tu mist[Em]erio poder descu[Am]brir el sentimiento et[Em]erno.
[C]T, con la luna en la ca[G]beza, el lugar en donde empi[F]eza,
el motivo y la ilus[G]in de mi existir.
Tan solo [C]t, solamente quiero que seas [Am]t.
Mi locura, mi tranquili[F]dad y mi de[C]lirio, mi com[F]ps y mi cam[G]ino.
Y solo [C]t, solamente quiero que seas [Am]t,
pongo[G-G] en tus manos mi destino, porque vivo para estar siempre,
siempre [C]contigo amor.
 
 E-8-10-12----8-10--------------------|
 B---------12------10---1/3-5---1/3---|
 G----------------------2/4-5-4-2/4-2-|
 D----------------------------5-----3-|
 A------------------------------------|
 E------------------------------------|
 

[C]T, coleccionista de [Am]canciones, mil emo[F]ciones, son para [G]ti.
[C]T, lo que so [Am]mi vida entera, qudate en [F]ella y hazme sent[G]ir.
Y [Am]as ir transfor[Em]mando la magia de [Am]ti en un respiro del a[Em]lma.
[C]T, con la luna en la ca[G]beza, el lugar en donde empi[F]eza,
el motivo y la ilus[G]in de mi existir.
Tan solo [C]t, solamente quiero que seas [Am]t.
Mi locura, mi tranquili[F]dad y mi de[C]lirio, mi com[F]ps y mi cam[G]ino.
Y solo [C]t, solamente quiero que seas [Am]t,
pongo en tus manos mi des[F]tino, porque [C]vivo para estar[F] siempre[G] contigo.
[A#]Ya no queda ms espacio en [C]mi interior, has llenado con tu luz cada rin[F]cn.
Es por ti que corre el ti[C]empo, mi alma si[A#]ente dife[G]rente.
[G]Sol[G]o t[C], solamente quiero que seas [Am]t,
Mi locura, mi tranquili[F]dad y mi de[C]lirio, mi com[F]ps y mi cam[G]ino.
Y solo [C]t, solamente quiero que seas [Am]t,
pongo[G-G] en tus manos mi destino, porque vivo para estar siempre,
siempre [C]contigo amor.
 
 E-8-10-12----8-10--------------------|
 B---------12------10---1/3-5---1/3---|
 G----------------------2/4-5-4-2/4-2-|
 D----------------------------5-----3-|
 A------------------------------------|
 E------------------------------------|
 

C Am F C F G C
F C FF FF G

Important: The song above is NOT stored on the Chordie server. The original song is hosted at chordiearchive.chordie.com. Chordie works as a search engine and provides on-the-fly formatting. Chordie does not index songs against artists'/composers' will. To remove this song please click here.

Text color:
Chord color:
Chord grids: 
Font size:    
Page size: 

A# Am C Em F G
Rate #7 of 13 versions

Login - add to songbook

SHARE PAGE  



You need to log in to post comments