Guitar Tabs, Chords and Lyrics
Update 25:10. 13:00. Site is back up running again. Songbooks are recovered. Woring on getting search back up..


I'm Not Crying Over You  Chris de Burgh



[Eb]  
 
 |-----------3-------|---------3-------|
 |-------4-------4---|-----4-------4---|
 |-----3---3---3---3-|---3---3---3---3-|
 |-------------------|-----------------|
 |--6----------------|-6---------------|
 |-------------------|-----------------|
 

Verse :
I don't mind this empty room
[Eb]  
 
 |-----------3-------|---------3-------|
 |-------4-------4---|-----4-------4---|
 |-----3---3---3---3-|---3---3---3---3-|
 |-------------------|-----------------|
 |--6----------------|-6---------------|
 |-------------------|-----------------|
 

and I like it when I'm alone
[Cm]  
 
 |-----------3-------|---------3-------|
 |-------4-------4---|-----4-------4---|
 |-----5---5---5---5-|---5---5---5---5-|
 |-------------------|-----------------|
 |--3----------------|-3---------------|
 |-------------------|-----------------|
 

I'm tryin' not to think about you
[Eb]  
 
 |-----------3-------|---------3-------|
 |-------4-------4---|-----4-------4---|
 |-----3---3---3---3-|---3---3---3---3-|
 |-------------------|-----------------|
 |--6----------------|-6---------------|
 |-------------------|-----------------|
 

I'm not waiting by the telephone
[Cm]  
 
 |-----------3-------|---------3-------|
 |-------4-------4---|-----4-------4---|
 |-----5---5---5---5-|---5---5---5---5-|
 |-------------------|-----------------|
 |--3----------------|-3---------------|
 |-------------------|-----------------|
 

I'm watching a late night movie
[Ab]  
 
 |-----------4-------|---------4-------|
 |-------4-------4---|-----4-------4---|
 |-----5---5---5---5-|---5---5---5---5-|
 |-------------------|-----------------|
 |-------------------|-----------------|
 |-6-4---------------|-4---------------|
 

where the lovers say goodbye
[Bb]  
 
 |---------6---------|---------6-------|
 |-----6-------6-----|-----6-------6---|
 |---7---7---7---7---|---7---7---7---7-|
 |-------------------|-----------------|
 |-------------------|-----------------|
 |-6-----------------|-6---------------|
 

and it's really getting to me
[Ab]  
 
 |-----------4-------|---------4-------|
 |-------4-------4---|-----4-------4---|
 |-----5---5---5---5-|---5---5---5---5-|
 |-------------------|-----------------|
 |-------------------|-----------------|
 |-6-4---------------|-4---------------|
 

the tears are in my eyes
[Bb]  
 
 |---------6---------|---------6-------|
 |-----6-------6-----|-----6-------6---|
 |---7---7---7---7---|---7---7---7---7-|
 |-------------------|-----------------|
 |-------------------|-----------------|
 |-6-----------------|-6---------------|
 

but I'm not [Eb]Cryin[Ab]'
I'm not [Eb]Cryin[Ab]'
I'm not [Fm]Cryin' [Eb]over [Bb]you
I'm over [Eb]you
Verse : same picking pattern or you may just strum the chords
I [Eb]go out with all of my friends
and I'm [Cm]hardly ever at home
you know [Eb]things just counldn't be better
I have [Cm]read it in my horoscope
I [Ab]might take a walk past your house
for a [Bb]trip down memory lane
You may [Ab]see me at your window
s[Bb]tanding at the pouring rain
Solo : On chorus Chord progression,listen for timing
 
 -----------------------------------------------|
 ----8-9-11---8-9-11---9-8-6---6----------------|
 --8--------8--------8-------8-----6-8-6--6-8-6-|
 ---------------------------------8------8------|
 -----------------------------------------------|
 -----------------------------------------------|
 ----------------11b13-11-----------------------|
 --9b11---8-9-11----------11s13-13s11-13--------|
 -------8---------------------------------------|
 -----------------------------------------------|
 -----------------------------------------------|
 -----------------------------------------------|
 -----------------|
 -11-9-8-9b11-----|
 -----------------|
 -----------------|
 -----------------|
 -----------------|
 

That's it,easy and good for beginners,don't move it down if you can't vocalize in E-flat
this will ruin its sad mood.
any comments or requests : Metia_kickass@hotmail.com

Important: The song above is NOT stored on the Chordie server. The original song is hosted at chordiearchive.chordie.com. Chordie works as a search engine and provides on-the-fly formatting. Chordie does not index songs against artists'/composers' will. To remove this song please click here.

Text color:
Chord color:
Chord grids: 
Font size:    
Page size: 

Ab Bb Cm Eb Fm
Rate #1 of 1 versions

Login - add to songbook

SHARE PAGE  




You need to log in to post comments