Guitar Tabs, Chords and Lyrics
Major upgrade!! After one year development the new version of Chordie is now online! Please give feedback.


Shilo  Neil Diamond



 
 -------------------------------------------------
 

 
 -1------------------------------------------------
 

 
 -0------------------------------------------------
 

 
 -2--------------3---2---0--------3---2-----2------
 

 
 -3-------------3---3---3--3-3---3---3--3-3--3------
 

 
 -------------------------------------------------
 

[C] [///]  
[C]Young child with dreams
[F]Dream every dream on your [C]own
[C]When children [F]play
[F]Seems like you end up [C]alone
[C]Papa said he [F]longed to be with you
If he had the [C]time
[C]So you turn to the [F]only friend you can [G]find
[F] There in your [G]mind [F]
CHORUS
/* Finger pick the intro riff as you sing - if you can't, the
C chords holds up the vocal line */
[C]Shilo, when I was young
I used to call your name
When no one else would come
Shilo you always came
And we'd play
Verse
[C]Doubting the years
[F]Keeping my dreams to [C]myself
[C]`til a young girl with [F]fire
Made me trust somebody [C]else
[C]Held my hand out
[F]I let her take me
Blind as a [C]child
All I know is the [F]way that she made me [G]smile
[F] She made s[G]mile [F]
CHORUS
[C]Shilo when I was young ..
Solo riff under the orchestra
 
 ----12-10------10-----10(?)-----------------------
 -----------------12-------------------------------
 10---------9--------------------------------------
 ---------------------------------------------
 ---------------------------------------------
 ---------------------------------------------
 

[C]Had a dream and it [F]filled me with wonder
C F C G6 (?) C
She had other plans
Got to go, she said I'[F]d know that you'd underst[G]and [F]
[G] [F]I understand
The G6 is trying to mimick the orchestration - give it a try.

Important: The song above is NOT stored on the Chordie server. The original song is hosted at chordiearchive.chordie.com. Chordie works as a search engine and provides on-the-fly formatting. Chordie does not index songs against artists'/composers' will. To remove this song please click here.

Text color:
Chord color:
Chord grids: 
Font size:    
Page size: 

C F G
Rate #1 of 6 versions

Jango Player

Login - add to songbook

SHARE PAGE  




You need to log in to post comments